ISO-10303-21;
HEADER;
FILE_DESCRIPTION (( 'STEP AP214' ),
    '1' );
FILE_NAME ('1124643.STEP',
    '2026-02-19T15:46:52',
    ( '' ),
    ( '' ),
    'SwSTEP 2.0',
    'SolidWorks 2024',
    '' );
FILE_SCHEMA (( 'AUTOMOTIVE_DESIGN' ));
ENDSEC;

DATA;
#1 = LINE ( 'NONE', #235, #388 ) ;
#2 = CARTESIAN_POINT ( 'NONE',  ( -20.00000000000000000, -17.50000000000000355, 5.000000000000000000 ) ) ;
#3 = VERTEX_POINT ( 'NONE', #82 ) ;
#4 = EDGE_CURVE ( 'NONE', #185, #288, #158, .T. ) ;
#5 = DIRECTION ( 'NONE',  ( 0.7071067811865495711, -0.7071067811865455743, -0.000000000000000000 ) ) ;
#6 = ORIENTED_EDGE ( 'NONE', *, *, #239, .T. ) ;
#7 = LINE ( 'NONE', #347, #267 ) ;
#8 = APPLICATION_CONTEXT ( 'automotive_design' ) ;
#9 = ORIENTED_EDGE ( 'NONE', *, *, #257, .T. ) ;
#10 =( NAMED_UNIT ( * ) PLANE_ANGLE_UNIT ( ) SI_UNIT ( $, .RADIAN. ) );
#11 = VERTEX_POINT ( 'NONE', #250 ) ;
#12 = VECTOR ( 'NONE', #144, 1000.000000000000000 ) ;
#13 = PRODUCT_RELATED_PRODUCT_CATEGORY ( 'part', '', ( #199 ) ) ;
#14 = CYLINDRICAL_SURFACE ( 'NONE', #101, 6.500000000000000888 ) ;
#15 = VERTEX_POINT ( 'NONE', #376 ) ;
#16 = DIRECTION ( 'NONE',  ( 0.000000000000000000, -0.000000000000000000, -1.000000000000000000 ) ) ;
#17 = ORIENTED_EDGE ( 'NONE', *, *, #117, .T. ) ;
#18 = DIRECTION ( 'NONE',  ( 0.000000000000000000, 1.000000000000000000, 0.000000000000000000 ) ) ;
#19 = EDGE_CURVE ( 'NONE', #288, #185, #259, .T. ) ;
#20 = VERTEX_POINT ( 'NONE', #290 ) ;
#21 = AXIS2_PLACEMENT_3D ( 'NONE', #301, #118, #237 ) ;
#22 = AXIS2_PLACEMENT_3D ( 'NONE', #283, #186, #308 ) ;
#23 = FACE_OUTER_BOUND ( 'NONE', #393, .T. ) ;
#24 = CARTESIAN_POINT ( 'NONE',  ( 3.469446951953614189E-15, 3.469446951953614189E-15, 5.000000000000000000 ) ) ;
#25 = DIRECTION ( 'NONE',  ( 0.000000000000000000, 0.000000000000000000, 1.000000000000000000 ) ) ;
#26 = CARTESIAN_POINT ( 'NONE',  ( 0.000000000000000000, 0.000000000000000000, 5.000000000000000000 ) ) ;
#27 = VECTOR ( 'NONE', #59, 1000.000000000000000 ) ;
#28 = FILL_AREA_STYLE ('',( #177 ) ) ;
#29 = DIRECTION ( 'NONE',  ( -0.000000000000000000, -1.000000000000000000, -0.000000000000000000 ) ) ;
#30 = APPLICATION_CONTEXT ( 'automotive_design' ) ;
#31 = CARTESIAN_POINT ( 'NONE',  ( -20.00000000000000000, -20.00000000000000000, 5.000000000000000000 ) ) ;
#32 = CIRCLE ( 'NONE', #221, 6.500000000000000888 ) ;
#33 = ORIENTED_EDGE ( 'NONE', *, *, #100, .T. ) ;
#34 = CARTESIAN_POINT ( 'NONE',  ( -20.00000000000000000, 20.00000000000000000, 0.000000000000000000 ) ) ;
#35 = ORIENTED_EDGE ( 'NONE', *, *, #182, .T. ) ;
#36 = EDGE_CURVE ( 'NONE', #315, #185, #111, .T. ) ;
#37 = DIRECTION ( 'NONE',  ( 0.000000000000000000, 0.000000000000000000, 1.000000000000000000 ) ) ;
#38 = VERTEX_POINT ( 'NONE', #206 ) ;
#39 = AXIS2_PLACEMENT_3D ( 'NONE', #253, #54, #142 ) ;
#40 = AXIS2_PLACEMENT_3D ( 'NONE', #306, #344, #37 ) ;
#41 = EDGE_LOOP ( 'NONE', ( #345, #349, #190, #371, #280, #258, #76, #79 ) ) ;
#42 = CARTESIAN_POINT ( 'NONE',  ( 20.00000000000000000, -17.50000000000000355, 0.000000000000000000 ) ) ;
#43 = EDGE_LOOP ( 'NONE', ( #131, #217, #218, #62 ) ) ;
#44 = CARTESIAN_POINT ( 'NONE',  ( -17.49999999999999289, -20.00000000000000000, 0.000000000000000000 ) ) ;
#45 = ADVANCED_FACE ( 'NONE', ( #328 ), #156, .F. ) ;
#46 = ORIENTED_EDGE ( 'NONE', *, *, #160, .F. ) ;
#47 = PRODUCT_CONTEXT ( 'NONE', #8, 'mechanical' ) ;
#48 = FACE_OUTER_BOUND ( 'NONE', #136, .T. ) ;
#49 = VERTEX_POINT ( 'NONE', #325 ) ;
#50 = AXIS2_PLACEMENT_3D ( 'NONE', #26, #213, #303 ) ;
#51 = DIRECTION ( 'NONE',  ( 0.7071067811865455743, 0.7071067811865495711, -0.000000000000000000 ) ) ;
#52 = ORIENTED_EDGE ( 'NONE', *, *, #197, .F. ) ;
#53 = DIRECTION ( 'NONE',  ( 0.7071067811865455743, -0.7071067811865495711, -0.000000000000000000 ) ) ;
#54 = DIRECTION ( 'NONE',  ( 0.000000000000000000, 0.000000000000000000, 1.000000000000000000 ) ) ;
#55 = LINE ( 'NONE', #379, #361 ) ;
#56 = CARTESIAN_POINT ( 'NONE',  ( 3.469446951953614189E-15, 3.469446951953614189E-15, 5.000000000000000000 ) ) ;
#57 = LINE ( 'NONE', #153, #261 ) ;
#58 = FACE_OUTER_BOUND ( 'NONE', #43, .T. ) ;
#59 = DIRECTION ( 'NONE',  ( 0.000000000000000000, 0.000000000000000000, -1.000000000000000000 ) ) ;
#60 = DIRECTION ( 'NONE',  ( 0.7071067811865495711, -0.7071067811865455743, 0.000000000000000000 ) ) ;
#61 = DIRECTION ( 'NONE',  ( 0.000000000000000000, 1.000000000000000000, 0.000000000000000000 ) ) ;
#62 = ORIENTED_EDGE ( 'NONE', *, *, #223, .F. ) ;
#63 = LINE ( 'NONE', #276, #331 ) ;
#64 = EDGE_CURVE ( 'NONE', #15, #352, #225, .T. ) ;
#65 = ORIENTED_EDGE ( 'NONE', *, *, #251, .T. ) ;
#66 = ORIENTED_EDGE ( 'NONE', *, *, #123, .F. ) ;
#67 = ORIENTED_EDGE ( 'NONE', *, *, #36, .T. ) ;
#68 = LINE ( 'NONE', #191, #71 ) ;
#69 = AXIS2_PLACEMENT_3D ( 'NONE', #195, #279, #112 ) ;
#70 = AXIS2_PLACEMENT_3D ( 'NONE', #263, #385, #260 ) ;
#71 = VECTOR ( 'NONE', #5, 1000.000000000000114 ) ;
#72 = ORIENTED_EDGE ( 'NONE', *, *, #223, .T. ) ;
#73 = EDGE_CURVE ( 'NONE', #11, #326, #377, .T. ) ;
#74 = EDGE_LOOP ( 'NONE', ( #277, #183, #248, #201 ) ) ;
#75 = UNCERTAINTY_MEASURE_WITH_UNIT (LENGTH_MEASURE( 1.000000000000000082E-05 ), #132, 'distance_accuracy_value', 'NONE');
#76 = ORIENTED_EDGE ( 'NONE', *, *, #188, .F. ) ;
#77 = DIRECTION ( 'NONE',  ( 0.000000000000000000, 0.000000000000000000, 1.000000000000000000 ) ) ;
#78 = EDGE_CURVE ( 'NONE', #15, #105, #234, .T. ) ;
#79 = ORIENTED_EDGE ( 'NONE', *, *, #358, .T. ) ;
#80 = AXIS2_PLACEMENT_3D ( 'NONE', #387, #338, #367 ) ;
#81 = FACE_BOUND ( 'NONE', #275, .T. ) ;
#82 = CARTESIAN_POINT ( 'NONE',  ( -17.49999999999999289, -20.00000000000000000, 5.000000000000000000 ) ) ;
#83 = DIRECTION ( 'NONE',  ( 0.000000000000000000, 0.000000000000000000, -1.000000000000000000 ) ) ;
#84 = ORIENTED_EDGE ( 'NONE', *, *, #129, .T. ) ;
#85 = FACE_OUTER_BOUND ( 'NONE', #107, .T. ) ;
#86 = AXIS2_PLACEMENT_3D ( 'NONE', #24, #114, #135 ) ;
#87 = VECTOR ( 'NONE', #189, 1000.000000000000000 ) ;
#88 = DIRECTION ( 'NONE',  ( 0.000000000000000000, -1.000000000000000000, 0.000000000000000000 ) ) ;
#89 = CARTESIAN_POINT ( 'NONE',  ( -20.00000000000000000, 20.00000000000000000, 5.000000000000000000 ) ) ;
#90 = CARTESIAN_POINT ( 'NONE',  ( -17.49999999999999289, -20.00000000000000000, 5.000000000000000000 ) ) ;
#91 = ADVANCED_FACE ( 'NONE', ( #173 ), #175, .F. ) ;
#92 = AXIS2_PLACEMENT_3D ( 'NONE', #103, #224, #172 ) ;
#93 = CIRCLE ( 'NONE', #80, 6.500000000000000888 ) ;
#94 = PRESENTATION_STYLE_ASSIGNMENT (( #364 ) ) ;
#95 = DIRECTION ( 'NONE',  ( 0.000000000000000000, 0.000000000000000000, -1.000000000000000000 ) ) ;
#96 = LINE ( 'NONE', #31, #192 ) ;
#97 =( NAMED_UNIT ( * ) PLANE_ANGLE_UNIT ( ) SI_UNIT ( $, .RADIAN. ) );
#98 = CARTESIAN_POINT ( 'NONE',  ( 17.49999999999999289, -20.00000000000000000, 5.000000000000000000 ) ) ;
#99 = DIRECTION ( 'NONE',  ( 0.000000000000000000, 1.000000000000000000, 0.000000000000000000 ) ) ;
#100 = EDGE_CURVE ( 'NONE', #38, #288, #55, .T. ) ;
#101 = AXIS2_PLACEMENT_3D ( 'NONE', #294, #227, #231 ) ;
#102 = ORIENTED_EDGE ( 'NONE', *, *, #204, .T. ) ;
#103 = CARTESIAN_POINT ( 'NONE',  ( 3.469446951953614189E-15, 3.469446951953614189E-15, 0.000000000000000000 ) ) ;
#104 = PLANE ( 'NONE',  #392 ) ;
#105 = VERTEX_POINT ( 'NONE', #292 ) ;
#106 = DIRECTION ( 'NONE',  ( 1.000000000000000000, 0.000000000000000000, 0.000000000000000000 ) ) ;
#107 = EDGE_LOOP ( 'NONE', ( #139, #65, #307, #380 ) ) ;
#108 = AXIS2_PLACEMENT_3D ( 'NONE', #285, #18, #207 ) ;
#109 =( GEOMETRIC_REPRESENTATION_CONTEXT ( 3 ) GLOBAL_UNCERTAINTY_ASSIGNED_CONTEXT ( ( #75 ) ) GLOBAL_UNIT_ASSIGNED_CONTEXT ( ( #132, #10, #219 ) ) REPRESENTATION_CONTEXT ( 'NONE', 'WORKASPACE' ) );
#110 = FACE_OUTER_BOUND ( 'NONE', #373, .T. ) ;
#111 = LINE ( 'NONE', #232, #311 ) ;
#112 = DIRECTION ( 'NONE',  ( 0.000000000000000000, 0.000000000000000000, -1.000000000000000000 ) ) ;
#113 = ADVANCED_FACE ( 'NONE', ( #23 ), #104, .F. ) ;
#114 = DIRECTION ( 'NONE',  ( -0.000000000000000000, -0.000000000000000000, -1.000000000000000000 ) ) ;
#115 = LINE ( 'NONE', #332, #159 ) ;
#116 = PLANE ( 'NONE',  #208 ) ;
#117 = EDGE_CURVE ( 'NONE', #315, #38, #32, .T. ) ;
#118 = DIRECTION ( 'NONE',  ( 0.7071067811865455743, 0.7071067811865495711, 0.000000000000000000 ) ) ;
#119 = STYLED_ITEM ( 'NONE', ( #94 ), #297 ) ;
#120 = LINE ( 'NONE', #147, #313 ) ;
#121 = LINE ( 'NONE', #302, #141 ) ;
#122 = ORIENTED_EDGE ( 'NONE', *, *, #78, .T. ) ;
#123 = EDGE_CURVE ( 'NONE', #305, #49, #171, .T. ) ;
#124 = CARTESIAN_POINT ( 'NONE',  ( 17.49999999999999289, -20.00000000000000000, 5.000000000000000000 ) ) ;
#125 = ORIENTED_EDGE ( 'NONE', *, *, #366, .T. ) ;
#126 = PRESENTATION_LAYER_ASSIGNMENT (  '', '', ( #119 ) ) ;
#127 = ORIENTED_EDGE ( 'NONE', *, *, #19, .T. ) ;
#128 = CARTESIAN_POINT ( 'NONE',  ( 6.500000000000004441, 4.265467371399393441E-15, 5.000000000000000000 ) ) ;
#129 = EDGE_CURVE ( 'NONE', #170, #187, #360, .T. ) ;
#130 = DIRECTION ( 'NONE',  ( -1.000000000000000000, -0.000000000000000000, -0.000000000000000000 ) ) ;
#131 = ORIENTED_EDGE ( 'NONE', *, *, #366, .F. ) ;
#132 =( LENGTH_UNIT ( ) NAMED_UNIT ( * ) SI_UNIT ( .MILLI., .METRE. ) );
#133 = ORIENTED_EDGE ( 'NONE', *, *, #295, .T. ) ;
#134 = ADVANCED_FACE ( 'NONE', ( #85 ), #205, .F. ) ;
#135 = DIRECTION ( 'NONE',  ( -1.000000000000000000, 0.000000000000000000, 0.000000000000000000 ) ) ;
#136 = EDGE_LOOP ( 'NONE', ( #255, #35, #102, #220 ) ) ;
#137 = SHAPE_DEFINITION_REPRESENTATION ( #348, #180 ) ;
#138 = FACE_OUTER_BOUND ( 'NONE', #41, .T. ) ;
#139 = ORIENTED_EDGE ( 'NONE', *, *, #257, .F. ) ;
#140 = CARTESIAN_POINT ( 'NONE',  ( 17.50000000000000355, 20.00000000000000000, 5.000000000000000000 ) ) ;
#141 = VECTOR ( 'NONE', #236, 1000.000000000000000 ) ;
#142 = DIRECTION ( 'NONE',  ( 1.000000000000000000, 0.000000000000000000, 0.000000000000000000 ) ) ;
#143 = VECTOR ( 'NONE', #162, 1000.000000000000000 ) ;
#144 = DIRECTION ( 'NONE',  ( 0.000000000000000000, 0.000000000000000000, -1.000000000000000000 ) ) ;
#145 = ADVANCED_FACE ( 'NONE', ( #138, #81 ), #289, .T. ) ;
#146 = DIRECTION ( 'NONE',  ( 0.000000000000000000, 0.000000000000000000, -1.000000000000000000 ) ) ;
#147 = CARTESIAN_POINT ( 'NONE',  ( -20.00000000000000000, 17.49999999999999289, 5.000000000000000000 ) ) ;
#148 = ADVANCED_FACE ( 'NONE', ( #48 ), #209, .F. ) ;
#149 = LINE ( 'NONE', #178, #299 ) ;
#150 = SURFACE_SIDE_STYLE ('',( #298 ) ) ;
#151 = DIRECTION ( 'NONE',  ( -1.000000000000000000, -0.000000000000000000, -0.000000000000000000 ) ) ;
#152 = VECTOR ( 'NONE', #359, 1000.000000000000114 ) ;
#153 = CARTESIAN_POINT ( 'NONE',  ( -18.74999999999994671, -18.75000000000004974, -0.000000000000000000 ) ) ;
#154 = ADVANCED_FACE ( 'NONE', ( #110 ), #14, .F. ) ;
#155 = CARTESIAN_POINT ( 'NONE',  ( -17.50000000000000355, 20.00000000000000000, 0.000000000000000000 ) ) ;
#156 = PLANE ( 'NONE',  #69 ) ;
#157 = ORIENTED_EDGE ( 'NONE', *, *, #340, .T. ) ;
#158 = CIRCLE ( 'NONE', #39, 6.500000000000000888 ) ;
#159 = VECTOR ( 'NONE', #61, 1000.000000000000000 ) ;
#160 = EDGE_CURVE ( 'NONE', #49, #383, #264, .T. ) ;
#161 = ORIENTED_EDGE ( 'NONE', *, *, #386, .F. ) ;
#162 = DIRECTION ( 'NONE',  ( 0.000000000000000000, 0.000000000000000000, 1.000000000000000000 ) ) ;
#163 = EDGE_LOOP ( 'NONE', ( #368, #17, #33, #203 ) ) ;
#164 = LINE ( 'NONE', #98, #143 ) ;
#165 = ORIENTED_EDGE ( 'NONE', *, *, #340, .F. ) ;
#166 = PRODUCT_DEFINITION_CONTEXT ( 'detailed design', #30, 'design' ) ;
#167 = CARTESIAN_POINT ( 'NONE',  ( 18.75000000000004974, 18.74999999999994671, 0.000000000000000000 ) ) ;
#168 = ORIENTED_EDGE ( 'NONE', *, *, #358, .F. ) ;
#169 = DIRECTION ( 'NONE',  ( -0.000000000000000000, -1.000000000000000000, -0.000000000000000000 ) ) ;
#170 = VERTEX_POINT ( 'NONE', #356 ) ;
#171 = LINE ( 'NONE', #233, #304 ) ;
#172 = DIRECTION ( 'NONE',  ( 1.000000000000000000, 0.000000000000000000, 0.000000000000000000 ) ) ;
#173 = FACE_OUTER_BOUND ( 'NONE', #74, .T. ) ;
#174 = ADVANCED_FACE ( 'NONE', ( #329 ), #202, .F. ) ;
#175 = PLANE ( 'NONE',  #70 ) ;
#176 = DIRECTION ( 'NONE',  ( 1.000000000000000000, 0.000000000000000000, 0.000000000000000000 ) ) ;
#177 = FILL_AREA_STYLE_COLOUR ( '', #238 ) ;
#178 = CARTESIAN_POINT ( 'NONE',  ( 20.00000000000000000, 17.49999999999999289, 5.000000000000000000 ) ) ;
#179 = DIRECTION ( 'NONE',  ( 0.000000000000000000, 0.000000000000000000, -1.000000000000000000 ) ) ;
#180 = ADVANCED_BREP_SHAPE_REPRESENTATION ( '1124643', ( #297, #22 ), #212 ) ;
#181 = LINE ( 'NONE', #333, #381 ) ;
#182 = EDGE_CURVE ( 'NONE', #3, #317, #365, .T. ) ;
#183 = ORIENTED_EDGE ( 'NONE', *, *, #295, .F. ) ;
#184 = VECTOR ( 'NONE', #314, 1000.000000000000114 ) ;
#185 = VERTEX_POINT ( 'NONE', #335 ) ;
#186 = DIRECTION ( 'NONE',  ( 0.000000000000000000, 0.000000000000000000, 1.000000000000000000 ) ) ;
#187 = VERTEX_POINT ( 'NONE', #389 ) ;
#188 = EDGE_CURVE ( 'NONE', #383, #326, #115, .T. ) ;
#189 = DIRECTION ( 'NONE',  ( 0.000000000000000000, 0.000000000000000000, 1.000000000000000000 ) ) ;
#190 = ORIENTED_EDGE ( 'NONE', *, *, #78, .F. ) ;
#191 = CARTESIAN_POINT ( 'NONE',  ( -17.49999999999999289, -20.00000000000000000, 5.000000000000000000 ) ) ;
#192 = VECTOR ( 'NONE', #176, 1000.000000000000000 ) ;
#193 = ORIENTED_EDGE ( 'NONE', *, *, #346, .F. ) ;
#194 =( NAMED_UNIT ( * ) SI_UNIT ( $, .STERADIAN. ) SOLID_ANGLE_UNIT ( ) );
#195 = CARTESIAN_POINT ( 'NONE',  ( 20.00000000000000000, -17.50000000000000355, 5.000000000000000000 ) ) ;
#196 = VERTEX_POINT ( 'NONE', #211 ) ;
#197 = EDGE_CURVE ( 'NONE', #317, #105, #57, .T. ) ;
#198 = ORIENTED_EDGE ( 'NONE', *, *, #330, .F. ) ;
#199 = PRODUCT ( '1124643', '1124643', '', ( #47 ) ) ;
#200 = DIRECTION ( 'NONE',  ( 0.7071067811865495711, 0.7071067811865455743, -0.000000000000000000 ) ) ;
#201 = ORIENTED_EDGE ( 'NONE', *, *, #251, .F. ) ;
#202 = CYLINDRICAL_SURFACE ( 'NONE', #86, 6.500000000000000888 ) ;
#203 = ORIENTED_EDGE ( 'NONE', *, *, #4, .F. ) ;
#204 = EDGE_CURVE ( 'NONE', #317, #309, #181, .T. ) ;
#205 = PLANE ( 'NONE',  #293 ) ;
#206 = CARTESIAN_POINT ( 'NONE',  ( -6.499999999999997335, 3.469446951953614189E-15, 5.000000000000000000 ) ) ;
#207 = DIRECTION ( 'NONE',  ( 0.000000000000000000, -0.000000000000000000, 1.000000000000000000 ) ) ;
#208 = AXIS2_PLACEMENT_3D ( 'NONE', #363, #60, #179 ) ;
#209 = PLANE ( 'NONE',  #108 ) ;
#210 = DIRECTION ( 'NONE',  ( 0.000000000000000000, 0.000000000000000000, -1.000000000000000000 ) ) ;
#211 = CARTESIAN_POINT ( 'NONE',  ( -17.50000000000000355, 20.00000000000000000, 5.000000000000000000 ) ) ;
#212 =( GEOMETRIC_REPRESENTATION_CONTEXT ( 3 ) GLOBAL_UNCERTAINTY_ASSIGNED_CONTEXT ( ( #319 ) ) GLOBAL_UNIT_ASSIGNED_CONTEXT ( ( #375, #97, #194 ) ) REPRESENTATION_CONTEXT ( 'NONE', 'WORKASPACE' ) );
#213 = DIRECTION ( 'NONE',  ( 0.000000000000000000, 0.000000000000000000, -1.000000000000000000 ) ) ;
#214 = ADVANCED_FACE ( 'NONE', ( #58 ), #116, .F. ) ;
#215 = FACE_BOUND ( 'NONE', #247, .T. ) ;
#216 = EDGE_LOOP ( 'NONE', ( #198, #378, #321, #133 ) ) ;
#217 = ORIENTED_EDGE ( 'NONE', *, *, #229, .F. ) ;
#218 = ORIENTED_EDGE ( 'NONE', *, *, #64, .F. ) ;
#219 =( NAMED_UNIT ( * ) SI_UNIT ( $, .STERADIAN. ) SOLID_ANGLE_UNIT ( ) );
#220 = ORIENTED_EDGE ( 'NONE', *, *, #386, .T. ) ;
#221 = AXIS2_PLACEMENT_3D ( 'NONE', #56, #77, #106 ) ;
#222 = EDGE_LOOP ( 'NONE', ( #165, #193, #52, #369 ) ) ;
#223 = EDGE_CURVE ( 'NONE', #20, #15, #120, .T. ) ;
#224 = DIRECTION ( 'NONE',  ( 0.000000000000000000, 0.000000000000000000, 1.000000000000000000 ) ) ;
#225 = LINE ( 'NONE', #254, #291 ) ;
#226 = EDGE_LOOP ( 'NONE', ( #66, #161, #168, #46 ) ) ;
#227 = DIRECTION ( 'NONE',  ( -0.000000000000000000, -0.000000000000000000, -1.000000000000000000 ) ) ;
#228 = VECTOR ( 'NONE', #169, 1000.000000000000000 ) ;
#229 = EDGE_CURVE ( 'NONE', #352, #196, #121, .T. ) ;
#230 = ORIENTED_EDGE ( 'NONE', *, *, #239, .F. ) ;
#231 = DIRECTION ( 'NONE',  ( -1.000000000000000000, 0.000000000000000000, 0.000000000000000000 ) ) ;
#232 = CARTESIAN_POINT ( 'NONE',  ( 6.500000000000004441, 4.265467371399393441E-15, 5.000000000000000000 ) ) ;
#233 = CARTESIAN_POINT ( 'NONE',  ( 20.00000000000000000, -17.50000000000000355, 5.000000000000000000 ) ) ;
#234 = LINE ( 'NONE', #287, #228 ) ;
#235 = CARTESIAN_POINT ( 'NONE',  ( -20.00000000000000000, -20.00000000000000000, 5.000000000000000000 ) ) ;
#236 = DIRECTION ( 'NONE',  ( 0.000000000000000000, 0.000000000000000000, 1.000000000000000000 ) ) ;
#237 = DIRECTION ( 'NONE',  ( 0.000000000000000000, 0.000000000000000000, -1.000000000000000000 ) ) ;
#238 = COLOUR_RGB ( '',0.7921568627450980005, 0.8196078431372548767, 0.9333333333333333481 ) ;
#239 = EDGE_CURVE ( 'NONE', #20, #262, #1, .T. ) ;
#240 = LINE ( 'NONE', #362, #27 ) ;
#241 = LINE ( 'NONE', #89, #246 ) ;
#242 = ORIENTED_EDGE ( 'NONE', *, *, #330, .T. ) ;
#243 = LINE ( 'NONE', #310, #184 ) ;
#244 = ADVANCED_FACE ( 'NONE', ( #391, #215 ), #337, .F. ) ;
#245 = ORIENTED_EDGE ( 'NONE', *, *, #100, .F. ) ;
#246 = VECTOR ( 'NONE', #151, 1000.000000000000000 ) ;
#247 = EDGE_LOOP ( 'NONE', ( #286, #312 ) ) ;
#248 = ORIENTED_EDGE ( 'NONE', *, *, #73, .F. ) ;
#249 = DIRECTION ( 'NONE',  ( -0.7071067811865495711, -0.7071067811865455743, -0.000000000000000000 ) ) ;
#250 = CARTESIAN_POINT ( 'NONE',  ( 17.50000000000000355, 20.00000000000000000, 0.000000000000000000 ) ) ;
#251 = EDGE_CURVE ( 'NONE', #187, #11, #240, .T. ) ;
#252 = AXIS2_PLACEMENT_3D ( 'NONE', #256, #146, #382 ) ;
#253 = CARTESIAN_POINT ( 'NONE',  ( 3.469446951953614189E-15, 3.469446951953614189E-15, 0.000000000000000000 ) ) ;
#254 = CARTESIAN_POINT ( 'NONE',  ( -18.75000000000004974, 18.74999999999994671, -0.000000000000000000 ) ) ;
#255 = ORIENTED_EDGE ( 'NONE', *, *, #270, .F. ) ;
#256 = CARTESIAN_POINT ( 'NONE',  ( 0.000000000000000000, 0.000000000000000000, 0.000000000000000000 ) ) ;
#257 = EDGE_CURVE ( 'NONE', #187, #196, #241, .T. ) ;
#258 = ORIENTED_EDGE ( 'NONE', *, *, #73, .T. ) ;
#259 = CIRCLE ( 'NONE', #92, 6.500000000000000888 ) ;
#260 = DIRECTION ( 'NONE',  ( 0.000000000000000000, 0.000000000000000000, -1.000000000000000000 ) ) ;
#261 = VECTOR ( 'NONE', #269, 1000.000000000000114 ) ;
#262 = VERTEX_POINT ( 'NONE', #271 ) ;
#263 = CARTESIAN_POINT ( 'NONE',  ( 17.50000000000000355, 20.00000000000000000, 5.000000000000000000 ) ) ;
#264 = LINE ( 'NONE', #354, #12 ) ;
#265 = EDGE_CURVE ( 'NONE', #38, #315, #93, .T. ) ;
#266 = PLANE ( 'NONE',  #40 ) ;
#267 = VECTOR ( 'NONE', #99, 1000.000000000000000 ) ;
#268 = PLANE ( 'NONE',  #21 ) ;
#269 = DIRECTION ( 'NONE',  ( -0.7071067811865495711, 0.7071067811865455743, -0.000000000000000000 ) ) ;
#270 = EDGE_CURVE ( 'NONE', #3, #305, #96, .T. ) ;
#271 = CARTESIAN_POINT ( 'NONE',  ( -20.00000000000000000, -17.50000000000000355, 5.000000000000000000 ) ) ;
#272 = PRODUCT_DEFINITION_FORMATION_WITH_SPECIFIED_SOURCE ( 'ANY', '', #199, .NOT_KNOWN. ) ;
#273 = DIRECTION ( 'NONE',  ( 1.000000000000000000, 0.000000000000000000, 0.000000000000000000 ) ) ;
#274 = CARTESIAN_POINT ( 'NONE',  ( 20.00000000000000000, 17.49999999999999289, 0.000000000000000000 ) ) ;
#275 = EDGE_LOOP ( 'NONE', ( #127, #355 ) ) ;
#276 = CARTESIAN_POINT ( 'NONE',  ( 18.74999999999994671, -18.75000000000004974, -0.000000000000000000 ) ) ;
#277 = ORIENTED_EDGE ( 'NONE', *, *, #129, .F. ) ;
#278 = FACE_OUTER_BOUND ( 'NONE', #216, .T. ) ;
#279 = DIRECTION ( 'NONE',  ( -0.7071067811865455743, 0.7071067811865495711, 0.000000000000000000 ) ) ;
#280 = ORIENTED_EDGE ( 'NONE', *, *, #334, .F. ) ;
#281 = ADVANCED_FACE ( 'NONE', ( #390 ), #268, .F. ) ;
#282 = EDGE_LOOP ( 'NONE', ( #6, #157, #343, #342, #242, #84, #9, #125 ) ) ;
#283 = CARTESIAN_POINT ( 'NONE',  ( 0.000000000000000000, 0.000000000000000000, 0.000000000000000000 ) ) ;
#284 = ORIENTED_EDGE ( 'NONE', *, *, #346, .T. ) ;
#285 = CARTESIAN_POINT ( 'NONE',  ( -20.00000000000000000, -20.00000000000000000, 5.000000000000000000 ) ) ;
#286 = ORIENTED_EDGE ( 'NONE', *, *, #265, .F. ) ;
#287 = CARTESIAN_POINT ( 'NONE',  ( -20.00000000000000000, -20.00000000000000000, 0.000000000000000000 ) ) ;
#288 = VERTEX_POINT ( 'NONE', #296 ) ;
#289 = PLANE ( 'NONE',  #252 ) ;
#290 = CARTESIAN_POINT ( 'NONE',  ( -20.00000000000000000, 17.49999999999999289, 5.000000000000000000 ) ) ;
#291 = VECTOR ( 'NONE', #51, 1000.000000000000114 ) ;
#292 = CARTESIAN_POINT ( 'NONE',  ( -20.00000000000000000, -17.50000000000000355, 0.000000000000000000 ) ) ;
#293 = AXIS2_PLACEMENT_3D ( 'NONE', #384, #88, #16 ) ;
#294 = CARTESIAN_POINT ( 'NONE',  ( 3.469446951953614189E-15, 3.469446951953614189E-15, 5.000000000000000000 ) ) ;
#295 = EDGE_CURVE ( 'NONE', #326, #170, #149, .T. ) ;
#296 = CARTESIAN_POINT ( 'NONE',  ( -6.499999999999997335, 3.469446951953614189E-15, 0.000000000000000000 ) ) ;
#297 = MANIFOLD_SOLID_BREP ( 'Chamfer1', #336 ) ;
#298 = SURFACE_STYLE_FILL_AREA ( #28 ) ;
#299 = VECTOR ( 'NONE', #25, 1000.000000000000000 ) ;
#300 = ADVANCED_FACE ( 'NONE', ( #278 ), #266, .F. ) ;
#301 = CARTESIAN_POINT ( 'NONE',  ( -17.49999999999999289, -20.00000000000000000, 5.000000000000000000 ) ) ;
#302 = CARTESIAN_POINT ( 'NONE',  ( -17.50000000000000355, 20.00000000000000000, 5.000000000000000000 ) ) ;
#303 = DIRECTION ( 'NONE',  ( -1.000000000000000000, 0.000000000000000000, -0.000000000000000000 ) ) ;
#304 = VECTOR ( 'NONE', #200, 1000.000000000000114 ) ;
#305 = VERTEX_POINT ( 'NONE', #124 ) ;
#306 = CARTESIAN_POINT ( 'NONE',  ( 20.00000000000000000, -20.00000000000000000, 5.000000000000000000 ) ) ;
#307 = ORIENTED_EDGE ( 'NONE', *, *, #334, .T. ) ;
#308 = DIRECTION ( 'NONE',  ( 1.000000000000000000, 0.000000000000000000, 0.000000000000000000 ) ) ;
#309 = VERTEX_POINT ( 'NONE', #372 ) ;
#310 = CARTESIAN_POINT ( 'NONE',  ( -20.00000000000000000, 17.49999999999999289, 5.000000000000000000 ) ) ;
#311 = VECTOR ( 'NONE', #350, 1000.000000000000000 ) ;
#312 = ORIENTED_EDGE ( 'NONE', *, *, #117, .F. ) ;
#313 = VECTOR ( 'NONE', #95, 1000.000000000000000 ) ;
#314 = DIRECTION ( 'NONE',  ( -0.7071067811865455743, -0.7071067811865495711, -0.000000000000000000 ) ) ;
#315 = VERTEX_POINT ( 'NONE', #128 ) ;
#316 = APPLICATION_PROTOCOL_DEFINITION ( 'draft international standard', 'automotive_design', 1998, #8 ) ;
#317 = VERTEX_POINT ( 'NONE', #44 ) ;
#318 = APPLICATION_PROTOCOL_DEFINITION ( 'draft international standard', 'automotive_design', 1998, #30 ) ;
#319 = UNCERTAINTY_MEASURE_WITH_UNIT (LENGTH_MEASURE( 1.000000000000000082E-05 ), #375, 'distance_accuracy_value', 'NONE');
#320 = PRODUCT_DEFINITION ( 'UNKNOWN', '', #272, #166 ) ;
#321 = ORIENTED_EDGE ( 'NONE', *, *, #188, .T. ) ;
#322 = CARTESIAN_POINT ( 'NONE',  ( -20.00000000000000000, -20.00000000000000000, 5.000000000000000000 ) ) ;
#323 = VECTOR ( 'NONE', #130, 1000.000000000000000 ) ;
#324 = ORIENTED_EDGE ( 'NONE', *, *, #19, .F. ) ;
#325 = CARTESIAN_POINT ( 'NONE',  ( 20.00000000000000000, -17.50000000000000355, 5.000000000000000000 ) ) ;
#326 = VERTEX_POINT ( 'NONE', #274 ) ;
#327 = DIRECTION ( 'NONE',  ( -0.000000000000000000, -0.000000000000000000, -1.000000000000000000 ) ) ;
#328 = FACE_OUTER_BOUND ( 'NONE', #226, .T. ) ;
#329 = FACE_OUTER_BOUND ( 'NONE', #163, .T. ) ;
#330 = EDGE_CURVE ( 'NONE', #49, #170, #7, .T. ) ;
#331 = VECTOR ( 'NONE', #249, 1000.000000000000114 ) ;
#332 = CARTESIAN_POINT ( 'NONE',  ( 20.00000000000000000, -20.00000000000000000, 0.000000000000000000 ) ) ;
#333 = CARTESIAN_POINT ( 'NONE',  ( -20.00000000000000000, -20.00000000000000000, 0.000000000000000000 ) ) ;
#334 = EDGE_CURVE ( 'NONE', #11, #352, #370, .T. ) ;
#335 = CARTESIAN_POINT ( 'NONE',  ( 6.500000000000004441, 4.265467371399393441E-15, 0.000000000000000000 ) ) ;
#336 = CLOSED_SHELL ( 'NONE', ( #154, #244, #145, #300, #134, #113, #148, #174, #281, #45, #91, #214 ) ) ;
#337 = PLANE ( 'NONE',  #50 ) ;
#338 = DIRECTION ( 'NONE',  ( 0.000000000000000000, 0.000000000000000000, 1.000000000000000000 ) ) ;
#339 = LINE ( 'NONE', #2, #87 ) ;
#340 = EDGE_CURVE ( 'NONE', #262, #3, #68, .T. ) ;
#341 = VECTOR ( 'NONE', #53, 1000.000000000000114 ) ;
#342 = ORIENTED_EDGE ( 'NONE', *, *, #123, .T. ) ;
#343 = ORIENTED_EDGE ( 'NONE', *, *, #270, .T. ) ;
#344 = DIRECTION ( 'NONE',  ( -1.000000000000000000, 0.000000000000000000, 0.000000000000000000 ) ) ;
#345 = ORIENTED_EDGE ( 'NONE', *, *, #204, .F. ) ;
#346 = EDGE_CURVE ( 'NONE', #105, #262, #339, .T. ) ;
#347 = CARTESIAN_POINT ( 'NONE',  ( 20.00000000000000000, -20.00000000000000000, 5.000000000000000000 ) ) ;
#348 = PRODUCT_DEFINITION_SHAPE ( 'NONE', 'NONE',  #320 ) ;
#349 = ORIENTED_EDGE ( 'NONE', *, *, #197, .T. ) ;
#350 = DIRECTION ( 'NONE',  ( -0.000000000000000000, -0.000000000000000000, -1.000000000000000000 ) ) ;
#351 = DIRECTION ( 'NONE',  ( 1.000000000000000000, 0.000000000000000000, 0.000000000000000000 ) ) ;
#352 = VERTEX_POINT ( 'NONE', #155 ) ;
#353 = MECHANICAL_DESIGN_GEOMETRIC_PRESENTATION_REPRESENTATION (  '', ( #119 ), #109 ) ;
#354 = CARTESIAN_POINT ( 'NONE',  ( 20.00000000000000000, -17.50000000000000355, 5.000000000000000000 ) ) ;
#355 = ORIENTED_EDGE ( 'NONE', *, *, #4, .T. ) ;
#356 = CARTESIAN_POINT ( 'NONE',  ( 20.00000000000000000, 17.49999999999999289, 5.000000000000000000 ) ) ;
#357 = ORIENTED_EDGE ( 'NONE', *, *, #265, .T. ) ;
#358 = EDGE_CURVE ( 'NONE', #383, #309, #63, .T. ) ;
#359 = DIRECTION ( 'NONE',  ( -0.7071067811865455743, 0.7071067811865495711, -0.000000000000000000 ) ) ;
#360 = LINE ( 'NONE', #140, #152 ) ;
#361 = VECTOR ( 'NONE', #327, 1000.000000000000000 ) ;
#362 = CARTESIAN_POINT ( 'NONE',  ( 17.50000000000000355, 20.00000000000000000, 5.000000000000000000 ) ) ;
#363 = CARTESIAN_POINT ( 'NONE',  ( -20.00000000000000000, 17.49999999999999289, 5.000000000000000000 ) ) ;
#364 = SURFACE_STYLE_USAGE ( .BOTH. , #150 ) ;
#365 = LINE ( 'NONE', #90, #374 ) ;
#366 = EDGE_CURVE ( 'NONE', #196, #20, #243, .T. ) ;
#367 = DIRECTION ( 'NONE',  ( 1.000000000000000000, 0.000000000000000000, 0.000000000000000000 ) ) ;
#368 = ORIENTED_EDGE ( 'NONE', *, *, #36, .F. ) ;
#369 = ORIENTED_EDGE ( 'NONE', *, *, #182, .F. ) ;
#370 = LINE ( 'NONE', #34, #323 ) ;
#371 = ORIENTED_EDGE ( 'NONE', *, *, #64, .T. ) ;
#372 = CARTESIAN_POINT ( 'NONE',  ( 17.49999999999999289, -20.00000000000000000, 0.000000000000000000 ) ) ;
#373 = EDGE_LOOP ( 'NONE', ( #357, #67, #324, #245 ) ) ;
#374 = VECTOR ( 'NONE', #210, 1000.000000000000000 ) ;
#375 =( LENGTH_UNIT ( ) NAMED_UNIT ( * ) SI_UNIT ( .MILLI., .METRE. ) );
#376 = CARTESIAN_POINT ( 'NONE',  ( -20.00000000000000000, 17.49999999999999289, 0.000000000000000000 ) ) ;
#377 = LINE ( 'NONE', #167, #341 ) ;
#378 = ORIENTED_EDGE ( 'NONE', *, *, #160, .T. ) ;
#379 = CARTESIAN_POINT ( 'NONE',  ( -6.499999999999997335, 3.469446951953614189E-15, 5.000000000000000000 ) ) ;
#380 = ORIENTED_EDGE ( 'NONE', *, *, #229, .T. ) ;
#381 = VECTOR ( 'NONE', #273, 1000.000000000000000 ) ;
#382 = DIRECTION ( 'NONE',  ( -1.000000000000000000, 0.000000000000000000, -0.000000000000000000 ) ) ;
#383 = VERTEX_POINT ( 'NONE', #42 ) ;
#384 = CARTESIAN_POINT ( 'NONE',  ( -20.00000000000000000, 20.00000000000000000, 5.000000000000000000 ) ) ;
#385 = DIRECTION ( 'NONE',  ( -0.7071067811865495711, -0.7071067811865455743, -0.000000000000000000 ) ) ;
#386 = EDGE_CURVE ( 'NONE', #309, #305, #164, .T. ) ;
#387 = CARTESIAN_POINT ( 'NONE',  ( 3.469446951953614189E-15, 3.469446951953614189E-15, 5.000000000000000000 ) ) ;
#388 = VECTOR ( 'NONE', #29, 1000.000000000000000 ) ;
#389 = CARTESIAN_POINT ( 'NONE',  ( 17.50000000000000355, 20.00000000000000000, 5.000000000000000000 ) ) ;
#390 = FACE_OUTER_BOUND ( 'NONE', #222, .T. ) ;
#391 = FACE_OUTER_BOUND ( 'NONE', #282, .T. ) ;
#392 = AXIS2_PLACEMENT_3D ( 'NONE', #322, #351, #83 ) ;
#393 = EDGE_LOOP ( 'NONE', ( #122, #284, #230, #72 ) ) ;
ENDSEC;
END-ISO-10303-21;
