ISO-10303-21;
HEADER;
FILE_DESCRIPTION((''),'2;1');
FILE_NAME('2046772','2015-06-18T',('AndreasKeweloh'),(''),
'CREO PARAMETRIC BY PTC INC, 2015080','CREO PARAMETRIC BY PTC INC, 2015080','');
FILE_SCHEMA(('CONFIG_CONTROL_DESIGN'));
ENDSEC;
DATA;
#1=DIRECTION('',(1.E0,0.E0,0.E0));
#2=VECTOR('',#1,2.890501256289E1);
#3=CARTESIAN_POINT('',(-2.99E1,0.E0,-1.36E1));
#4=LINE('',#3,#2);
#5=DIRECTION('',(1.E0,0.E0,0.E0));
#6=VECTOR('',#5,2.890501256289E1);
#7=CARTESIAN_POINT('',(-2.99E1,0.E0,1.36E1));
#8=LINE('',#7,#6);
#9=CARTESIAN_POINT('',(-9.949874371066E-1,0.E0,0.E0));
#10=DIRECTION('',(1.E0,0.E0,0.E0));
#11=DIRECTION('',(0.E0,0.E0,-1.E0));
#12=AXIS2_PLACEMENT_3D('',#9,#10,#11);
#14=CARTESIAN_POINT('',(0.E0,0.E0,-1.35E1));
#15=DIRECTION('',(0.E0,-1.E0,0.E0));
#16=DIRECTION('',(0.E0,0.E0,1.E0));
#17=AXIS2_PLACEMENT_3D('',#14,#15,#16);
#19=CARTESIAN_POINT('',(-9.949874371066E-1,0.E0,0.E0));
#20=DIRECTION('',(1.E0,0.E0,0.E0));
#21=DIRECTION('',(0.E0,0.E0,1.E0));
#22=AXIS2_PLACEMENT_3D('',#19,#20,#21);
#24=CARTESIAN_POINT('',(0.E0,0.E0,1.35E1));
#25=DIRECTION('',(0.E0,1.E0,0.E0));
#26=DIRECTION('',(0.E0,0.E0,-1.E0));
#27=AXIS2_PLACEMENT_3D('',#24,#25,#26);
#29=CARTESIAN_POINT('',(0.E0,0.E0,0.E0));
#30=DIRECTION('',(1.E0,0.E0,0.E0));
#31=DIRECTION('',(0.E0,0.E0,1.E0));
#32=AXIS2_PLACEMENT_3D('',#29,#30,#31);
#34=CARTESIAN_POINT('',(0.E0,0.E0,1.35E1));
#35=DIRECTION('',(0.E0,1.E0,0.E0));
#36=DIRECTION('',(9.949874371066E-1,0.E0,1.E-1));
#37=AXIS2_PLACEMENT_3D('',#34,#35,#36);
#39=CARTESIAN_POINT('',(9.949874371066E-1,0.E0,0.E0));
#40=DIRECTION('',(-1.E0,0.E0,0.E0));
#41=DIRECTION('',(0.E0,0.E0,-1.E0));
#42=AXIS2_PLACEMENT_3D('',#39,#40,#41);
#44=CARTESIAN_POINT('',(0.E0,0.E0,0.E0));
#45=DIRECTION('',(1.E0,0.E0,0.E0));
#46=DIRECTION('',(0.E0,0.E0,-1.E0));
#47=AXIS2_PLACEMENT_3D('',#44,#45,#46);
#49=CARTESIAN_POINT('',(0.E0,0.E0,-1.35E1));
#50=DIRECTION('',(0.E0,-1.E0,0.E0));
#51=DIRECTION('',(9.949874371066E-1,0.E0,-1.E-1));
#52=AXIS2_PLACEMENT_3D('',#49,#50,#51);
#54=CARTESIAN_POINT('',(9.949874371066E-1,0.E0,0.E0));
#55=DIRECTION('',(-1.E0,0.E0,0.E0));
#56=DIRECTION('',(0.E0,0.E0,1.E0));
#57=AXIS2_PLACEMENT_3D('',#54,#55,#56);
#59=DIRECTION('',(1.E0,0.E0,0.E0));
#60=VECTOR('',#59,2.890501256289E1);
#61=CARTESIAN_POINT('',(9.949874371066E-1,0.E0,1.36E1));
#62=LINE('',#61,#60);
#63=CARTESIAN_POINT('',(2.99E1,0.E0,1.35E1));
#64=DIRECTION('',(0.E0,1.E0,0.E0));
#65=DIRECTION('',(0.E0,0.E0,1.E0));
#66=AXIS2_PLACEMENT_3D('',#63,#64,#65);
#68=CARTESIAN_POINT('',(2.99E1,0.E0,0.E0));
#69=DIRECTION('',(1.E0,0.E0,0.E0));
#70=DIRECTION('',(0.E0,0.E0,-1.E0));
#71=AXIS2_PLACEMENT_3D('',#68,#69,#70);
#73=CARTESIAN_POINT('',(3.E1,0.E0,0.E0));
#74=DIRECTION('',(1.E0,0.E0,0.E0));
#75=DIRECTION('',(0.E0,0.E0,1.E0));
#76=AXIS2_PLACEMENT_3D('',#73,#74,#75);
#78=CARTESIAN_POINT('',(3.E1,0.E0,0.E0));
#79=DIRECTION('',(1.E0,0.E0,0.E0));
#80=DIRECTION('',(0.E0,0.E0,-1.E0));
#81=AXIS2_PLACEMENT_3D('',#78,#79,#80);
#83=CARTESIAN_POINT('',(3.E1,0.E0,0.E0));
#84=DIRECTION('',(-1.E0,0.E0,0.E0));
#85=DIRECTION('',(0.E0,0.E0,1.E0));
#86=AXIS2_PLACEMENT_3D('',#83,#84,#85);
#88=CARTESIAN_POINT('',(3.E1,0.E0,0.E0));
#89=DIRECTION('',(-1.E0,0.E0,0.E0));
#90=DIRECTION('',(0.E0,0.E0,-1.E0));
#91=AXIS2_PLACEMENT_3D('',#88,#89,#90);
#93=CARTESIAN_POINT('',(2.99E1,0.E0,-1.35E1));
#94=DIRECTION('',(0.E0,-1.E0,0.E0));
#95=DIRECTION('',(0.E0,0.E0,-1.E0));
#96=AXIS2_PLACEMENT_3D('',#93,#94,#95);
#98=CARTESIAN_POINT('',(2.99E1,0.E0,0.E0));
#99=DIRECTION('',(1.E0,0.E0,0.E0));
#100=DIRECTION('',(0.E0,0.E0,1.E0));
#101=AXIS2_PLACEMENT_3D('',#98,#99,#100);
#103=DIRECTION('',(1.E0,0.E0,0.E0));
#104=VECTOR('',#103,2.890501256289E1);
#105=CARTESIAN_POINT('',(9.949874371066E-1,0.E0,-1.36E1));
#106=LINE('',#105,#104);
#107=CARTESIAN_POINT('',(2.99E1,0.E0,0.E0));
#108=DIRECTION('',(-1.E0,0.E0,0.E0));
#109=DIRECTION('',(0.E0,0.E0,1.E0));
#110=AXIS2_PLACEMENT_3D('',#107,#108,#109);
#112=CARTESIAN_POINT('',(2.99E1,0.E0,1.27E1));
#113=DIRECTION('',(0.E0,1.E0,0.E0));
#114=DIRECTION('',(1.E0,0.E0,0.E0));
#115=AXIS2_PLACEMENT_3D('',#112,#113,#114);
#117=DIRECTION('',(1.E0,0.E0,0.E0));
#118=VECTOR('',#117,2.811394289005E1);
#119=CARTESIAN_POINT('',(1.786057109949E0,0.E0,-1.26E1));
#120=LINE('',#119,#118);
#121=DIRECTION('',(1.E0,0.E0,0.E0));
#122=VECTOR('',#121,2.811394289005E1);
#123=CARTESIAN_POINT('',(1.786057109949E0,0.E0,1.26E1));
#124=LINE('',#123,#122);
#125=CARTESIAN_POINT('',(2.99E1,0.E0,-1.27E1));
#126=DIRECTION('',(0.E0,-1.E0,0.E0));
#127=DIRECTION('',(1.E0,0.E0,0.E0));
#128=AXIS2_PLACEMENT_3D('',#125,#126,#127);
#130=CARTESIAN_POINT('',(2.99E1,0.E0,0.E0));
#131=DIRECTION('',(-1.E0,0.E0,0.E0));
#132=DIRECTION('',(0.E0,0.E0,-1.E0));
#133=AXIS2_PLACEMENT_3D('',#130,#131,#132);
#135=CARTESIAN_POINT('',(0.E0,0.E0,-1.35E1));
#136=DIRECTION('',(0.E0,-1.E0,0.E0));
#137=DIRECTION('',(8.930285549746E-1,0.E0,4.5E-1));
#138=AXIS2_PLACEMENT_3D('',#135,#136,#137);
#140=CARTESIAN_POINT('',(1.786057109949E0,0.E0,0.E0));
#141=DIRECTION('',(1.E0,0.E0,0.E0));
#142=DIRECTION('',(0.E0,0.E0,1.E0));
#143=AXIS2_PLACEMENT_3D('',#140,#141,#142);
#145=CARTESIAN_POINT('',(0.E0,0.E0,1.35E1));
#146=DIRECTION('',(0.E0,1.E0,0.E0));
#147=DIRECTION('',(8.930285549746E-1,0.E0,-4.5E-1));
#148=AXIS2_PLACEMENT_3D('',#145,#146,#147);
#150=CARTESIAN_POINT('',(1.786057109949E0,0.E0,0.E0));
#151=DIRECTION('',(1.E0,0.E0,0.E0));
#152=DIRECTION('',(0.E0,0.E0,-1.E0));
#153=AXIS2_PLACEMENT_3D('',#150,#151,#152);
#155=CARTESIAN_POINT('',(0.E0,0.E0,0.E0));
#156=DIRECTION('',(1.E0,0.E0,0.E0));
#157=DIRECTION('',(0.E0,0.E0,-1.E0));
#158=AXIS2_PLACEMENT_3D('',#155,#156,#157);
#160=CARTESIAN_POINT('',(-1.786057109949E0,0.E0,0.E0));
#161=DIRECTION('',(-1.E0,0.E0,0.E0));
#162=DIRECTION('',(0.E0,0.E0,1.E0));
#163=AXIS2_PLACEMENT_3D('',#160,#161,#162);
#165=CARTESIAN_POINT('',(0.E0,0.E0,1.35E1));
#166=DIRECTION('',(0.E0,1.E0,0.E0));
#167=DIRECTION('',(0.E0,0.E0,-1.E0));
#168=AXIS2_PLACEMENT_3D('',#165,#166,#167);
#170=CARTESIAN_POINT('',(0.E0,0.E0,0.E0));
#171=DIRECTION('',(1.E0,0.E0,0.E0));
#172=DIRECTION('',(0.E0,0.E0,1.E0));
#173=AXIS2_PLACEMENT_3D('',#170,#171,#172);
#175=CARTESIAN_POINT('',(-1.786057109949E0,0.E0,0.E0));
#176=DIRECTION('',(-1.E0,0.E0,0.E0));
#177=DIRECTION('',(0.E0,0.E0,-1.E0));
#178=AXIS2_PLACEMENT_3D('',#175,#176,#177);
#180=CARTESIAN_POINT('',(0.E0,0.E0,-1.35E1));
#181=DIRECTION('',(0.E0,-1.E0,0.E0));
#182=DIRECTION('',(0.E0,0.E0,1.E0));
#183=AXIS2_PLACEMENT_3D('',#180,#181,#182);
#185=DIRECTION('',(1.E0,0.E0,0.E0));
#186=VECTOR('',#185,2.811394289005E1);
#187=CARTESIAN_POINT('',(-2.99E1,0.E0,1.26E1));
#188=LINE('',#187,#186);
#189=DIRECTION('',(1.E0,0.E0,0.E0));
#190=VECTOR('',#189,2.811394289005E1);
#191=CARTESIAN_POINT('',(-2.99E1,0.E0,-1.26E1));
#192=LINE('',#191,#190);
#193=CARTESIAN_POINT('',(-2.99E1,0.E0,0.E0));
#194=DIRECTION('',(1.E0,0.E0,0.E0));
#195=DIRECTION('',(0.E0,0.E0,-1.E0));
#196=AXIS2_PLACEMENT_3D('',#193,#194,#195);
#198=CARTESIAN_POINT('',(-2.99E1,0.E0,-1.27E1));
#199=DIRECTION('',(0.E0,1.E0,0.E0));
#200=DIRECTION('',(-1.E0,0.E0,0.E0));
#201=AXIS2_PLACEMENT_3D('',#198,#199,#200);
#203=CARTESIAN_POINT('',(-2.99E1,0.E0,1.27E1));
#204=DIRECTION('',(0.E0,-1.E0,0.E0));
#205=DIRECTION('',(-1.E0,0.E0,0.E0));
#206=AXIS2_PLACEMENT_3D('',#203,#204,#205);
#208=CARTESIAN_POINT('',(-2.99E1,0.E0,0.E0));
#209=DIRECTION('',(1.E0,0.E0,0.E0));
#210=DIRECTION('',(0.E0,0.E0,1.E0));
#211=AXIS2_PLACEMENT_3D('',#208,#209,#210);
#213=CARTESIAN_POINT('',(-3.E1,0.E0,0.E0));
#214=DIRECTION('',(-1.E0,0.E0,0.E0));
#215=DIRECTION('',(0.E0,0.E0,-1.E0));
#216=AXIS2_PLACEMENT_3D('',#213,#214,#215);
#218=CARTESIAN_POINT('',(-3.E1,0.E0,0.E0));
#219=DIRECTION('',(-1.E0,0.E0,0.E0));
#220=DIRECTION('',(0.E0,0.E0,1.E0));
#221=AXIS2_PLACEMENT_3D('',#218,#219,#220);
#223=CARTESIAN_POINT('',(-3.E1,0.E0,0.E0));
#224=DIRECTION('',(1.E0,0.E0,0.E0));
#225=DIRECTION('',(0.E0,0.E0,-1.E0));
#226=AXIS2_PLACEMENT_3D('',#223,#224,#225);
#228=CARTESIAN_POINT('',(-3.E1,0.E0,0.E0));
#229=DIRECTION('',(1.E0,0.E0,0.E0));
#230=DIRECTION('',(0.E0,0.E0,1.E0));
#231=AXIS2_PLACEMENT_3D('',#228,#229,#230);
#233=CARTESIAN_POINT('',(-2.99E1,0.E0,1.35E1));
#234=DIRECTION('',(0.E0,-1.E0,0.E0));
#235=DIRECTION('',(0.E0,0.E0,1.E0));
#236=AXIS2_PLACEMENT_3D('',#233,#234,#235);
#238=CARTESIAN_POINT('',(-2.99E1,0.E0,0.E0));
#239=DIRECTION('',(-1.E0,0.E0,0.E0));
#240=DIRECTION('',(0.E0,0.E0,-1.E0));
#241=AXIS2_PLACEMENT_3D('',#238,#239,#240);
#243=CARTESIAN_POINT('',(-2.99E1,0.E0,-1.35E1));
#244=DIRECTION('',(0.E0,1.E0,0.E0));
#245=DIRECTION('',(0.E0,0.E0,-1.E0));
#246=AXIS2_PLACEMENT_3D('',#243,#244,#245);
#248=CARTESIAN_POINT('',(-2.99E1,0.E0,0.E0));
#249=DIRECTION('',(-1.E0,0.E0,0.E0));
#250=DIRECTION('',(0.E0,0.E0,1.E0));
#251=AXIS2_PLACEMENT_3D('',#248,#249,#250);
#253=CARTESIAN_POINT('',(-2.99E1,0.E0,1.26E1));
#254=CARTESIAN_POINT('',(-1.786057109949E0,0.E0,1.26E1));
#255=VERTEX_POINT('',#253);
#256=VERTEX_POINT('',#254);
#257=CARTESIAN_POINT('',(1.786057109949E0,0.E0,1.26E1));
#258=CARTESIAN_POINT('',(2.99E1,0.E0,1.26E1));
#259=VERTEX_POINT('',#257);
#260=VERTEX_POINT('',#258);
#261=CARTESIAN_POINT('',(2.99E1,0.E0,-1.36E1));
#262=CARTESIAN_POINT('',(3.E1,0.E0,-1.35E1));
#263=VERTEX_POINT('',#261);
#264=VERTEX_POINT('',#262);
#265=CARTESIAN_POINT('',(-3.E1,0.E0,-1.27E1));
#266=CARTESIAN_POINT('',(-3.E1,0.E0,1.27E1));
#267=VERTEX_POINT('',#265);
#268=VERTEX_POINT('',#266);
#269=CARTESIAN_POINT('',(-2.99E1,0.E0,-1.36E1));
#270=CARTESIAN_POINT('',(-9.949874371066E-1,0.E0,-1.36E1));
#271=VERTEX_POINT('',#269);
#272=VERTEX_POINT('',#270);
#273=CARTESIAN_POINT('',(1.786057109949E0,0.E0,-1.26E1));
#274=VERTEX_POINT('',#273);
#275=CARTESIAN_POINT('',(2.99E1,0.E0,1.36E1));
#276=VERTEX_POINT('',#275);
#277=CARTESIAN_POINT('',(0.E0,0.E0,1.15E1));
#278=VERTEX_POINT('',#277);
#279=CARTESIAN_POINT('',(-2.99E1,0.E0,1.36E1));
#280=CARTESIAN_POINT('',(-9.949874371066E-1,0.E0,1.36E1));
#281=VERTEX_POINT('',#279);
#282=VERTEX_POINT('',#280);
#283=CARTESIAN_POINT('',(-2.99E1,0.E0,-1.26E1));
#284=VERTEX_POINT('',#283);
#285=CARTESIAN_POINT('',(-3.E1,0.E0,-1.35E1));
#286=CARTESIAN_POINT('',(-3.E1,0.E0,1.35E1));
#287=VERTEX_POINT('',#285);
#288=VERTEX_POINT('',#286);
#289=CARTESIAN_POINT('',(3.E1,0.E0,1.35E1));
#290=VERTEX_POINT('',#289);
#291=CARTESIAN_POINT('',(-1.786057109949E0,0.E0,-1.26E1));
#292=VERTEX_POINT('',#291);
#293=CARTESIAN_POINT('',(9.949874371066E-1,0.E0,-1.36E1));
#294=VERTEX_POINT('',#293);
#295=CARTESIAN_POINT('',(0.E0,0.E0,-1.25E1));
#296=VERTEX_POINT('',#295);
#297=CARTESIAN_POINT('',(2.99E1,0.E0,-1.26E1));
#298=VERTEX_POINT('',#297);
#299=CARTESIAN_POINT('',(0.E0,0.E0,1.25E1));
#300=VERTEX_POINT('',#299);
#301=CARTESIAN_POINT('',(0.E0,0.E0,-1.15E1));
#302=VERTEX_POINT('',#301);
#303=CARTESIAN_POINT('',(9.949874371066E-1,0.E0,1.36E1));
#304=VERTEX_POINT('',#303);
#305=CARTESIAN_POINT('',(3.E1,0.E0,-1.27E1));
#306=VERTEX_POINT('',#305);
#307=CARTESIAN_POINT('',(3.E1,0.E0,1.27E1));
#308=VERTEX_POINT('',#307);
#309=CARTESIAN_POINT('',(-1.747792894758E1,0.E0,0.E0));
#310=DIRECTION('',(-1.E0,0.E0,0.E0));
#311=DIRECTION('',(0.E0,0.E0,1.E0));
#312=AXIS2_PLACEMENT_3D('',#309,#310,#311);
#313=CYLINDRICAL_SURFACE('',#312,1.36E1);
#315=ORIENTED_EDGE('',*,*,#314,.F.);
#317=ORIENTED_EDGE('',*,*,#316,.T.);
#319=ORIENTED_EDGE('',*,*,#318,.T.);
#321=ORIENTED_EDGE('',*,*,#320,.T.);
#322=EDGE_LOOP('',(#315,#317,#319,#321));
#323=FACE_OUTER_BOUND('',#322,.F.);
#324=ADVANCED_FACE('',(#323),#313,.T.);
#325=CARTESIAN_POINT('',(-1.747792894758E1,0.E0,0.E0));
#326=DIRECTION('',(-1.E0,0.E0,0.E0));
#327=DIRECTION('',(0.E0,0.E0,1.E0));
#328=AXIS2_PLACEMENT_3D('',#325,#326,#327);
#329=CYLINDRICAL_SURFACE('',#328,1.36E1);
#331=ORIENTED_EDGE('',*,*,#330,.T.);
#332=ORIENTED_EDGE('',*,*,#318,.F.);
#334=ORIENTED_EDGE('',*,*,#333,.T.);
#335=ORIENTED_EDGE('',*,*,#314,.T.);
#336=EDGE_LOOP('',(#331,#332,#334,#335));
#337=FACE_OUTER_BOUND('',#336,.F.);
#338=ADVANCED_FACE('',(#337),#329,.T.);
#339=CARTESIAN_POINT('',(0.E0,0.E0,0.E0));
#340=DIRECTION('',(-1.E0,0.E0,0.E0));
#341=DIRECTION('',(0.E0,0.E0,1.E0));
#342=AXIS2_PLACEMENT_3D('',#339,#340,#341);
#343=TOROIDAL_SURFACE('',#342,1.35E1,1.E0);
#345=ORIENTED_EDGE('',*,*,#344,.T.);
#346=ORIENTED_EDGE('',*,*,#330,.F.);
#348=ORIENTED_EDGE('',*,*,#347,.F.);
#350=ORIENTED_EDGE('',*,*,#349,.T.);
#351=EDGE_LOOP('',(#345,#346,#348,#350));
#352=FACE_OUTER_BOUND('',#351,.F.);
#353=ADVANCED_FACE('',(#352),#343,.F.);
#354=CARTESIAN_POINT('',(0.E0,0.E0,0.E0));
#355=DIRECTION('',(-1.E0,0.E0,0.E0));
#356=DIRECTION('',(0.E0,0.E0,1.E0));
#357=AXIS2_PLACEMENT_3D('',#354,#355,#356);
#358=TOROIDAL_SURFACE('',#357,1.35E1,1.E0);
#359=ORIENTED_EDGE('',*,*,#347,.T.);
#360=ORIENTED_EDGE('',*,*,#320,.F.);
#361=ORIENTED_EDGE('',*,*,#344,.F.);
#363=ORIENTED_EDGE('',*,*,#362,.T.);
#364=EDGE_LOOP('',(#359,#360,#361,#363));
#365=FACE_OUTER_BOUND('',#364,.F.);
#366=ADVANCED_FACE('',(#365),#358,.F.);
#367=CARTESIAN_POINT('',(0.E0,0.E0,0.E0));
#368=DIRECTION('',(-1.E0,0.E0,0.E0));
#369=DIRECTION('',(0.E0,0.E0,1.E0));
#370=AXIS2_PLACEMENT_3D('',#367,#368,#369);
#371=TOROIDAL_SURFACE('',#370,1.35E1,1.E0);
#372=ORIENTED_EDGE('',*,*,#362,.F.);
#374=ORIENTED_EDGE('',*,*,#373,.F.);
#376=ORIENTED_EDGE('',*,*,#375,.F.);
#378=ORIENTED_EDGE('',*,*,#377,.T.);
#379=EDGE_LOOP('',(#372,#374,#376,#378));
#380=FACE_OUTER_BOUND('',#379,.F.);
#381=ADVANCED_FACE('',(#380),#371,.F.);
#382=CARTESIAN_POINT('',(0.E0,0.E0,0.E0));
#383=DIRECTION('',(-1.E0,0.E0,0.E0));
#384=DIRECTION('',(0.E0,0.E0,1.E0));
#385=AXIS2_PLACEMENT_3D('',#382,#383,#384);
#386=TOROIDAL_SURFACE('',#385,1.35E1,1.E0);
#387=ORIENTED_EDGE('',*,*,#349,.F.);
#388=ORIENTED_EDGE('',*,*,#377,.F.);
#390=ORIENTED_EDGE('',*,*,#389,.F.);
#391=ORIENTED_EDGE('',*,*,#373,.T.);
#392=EDGE_LOOP('',(#387,#388,#390,#391));
#393=FACE_OUTER_BOUND('',#392,.F.);
#394=ADVANCED_FACE('',(#393),#386,.F.);
#395=CARTESIAN_POINT('',(-1.747792894758E1,0.E0,0.E0));
#396=DIRECTION('',(-1.E0,0.E0,0.E0));
#397=DIRECTION('',(0.E0,0.E0,1.E0));
#398=AXIS2_PLACEMENT_3D('',#395,#396,#397);
#399=CYLINDRICAL_SURFACE('',#398,1.36E1);
#401=ORIENTED_EDGE('',*,*,#400,.T.);
#403=ORIENTED_EDGE('',*,*,#402,.F.);
#404=ORIENTED_EDGE('',*,*,#389,.T.);
#406=ORIENTED_EDGE('',*,*,#405,.T.);
#407=EDGE_LOOP('',(#401,#403,#404,#406));
#408=FACE_OUTER_BOUND('',#407,.F.);
#409=ADVANCED_FACE('',(#408),#399,.T.);
#410=CARTESIAN_POINT('',(2.99E1,0.E0,0.E0));
#411=DIRECTION('',(-1.E0,0.E0,0.E0));
#412=DIRECTION('',(0.E0,0.E0,1.E0));
#413=AXIS2_PLACEMENT_3D('',#410,#411,#412);
#414=TOROIDAL_SURFACE('',#413,1.35E1,1.E-1);
#416=ORIENTED_EDGE('',*,*,#415,.T.);
#418=ORIENTED_EDGE('',*,*,#417,.F.);
#419=ORIENTED_EDGE('',*,*,#400,.F.);
#421=ORIENTED_EDGE('',*,*,#420,.T.);
#422=EDGE_LOOP('',(#416,#418,#419,#421));
#423=FACE_OUTER_BOUND('',#422,.F.);
#424=ADVANCED_FACE('',(#423),#414,.T.);
#425=CARTESIAN_POINT('',(3.E1,1.36E1,0.E0));
#426=DIRECTION('',(-1.E0,0.E0,0.E0));
#427=DIRECTION('',(0.E0,0.E0,1.E0));
#428=AXIS2_PLACEMENT_3D('',#425,#426,#427);
#429=PLANE('',#428);
#431=ORIENTED_EDGE('',*,*,#430,.F.);
#432=ORIENTED_EDGE('',*,*,#415,.F.);
#433=EDGE_LOOP('',(#431,#432));
#434=FACE_OUTER_BOUND('',#433,.F.);
#436=ORIENTED_EDGE('',*,*,#435,.F.);
#438=ORIENTED_EDGE('',*,*,#437,.F.);
#439=EDGE_LOOP('',(#436,#438));
#440=FACE_BOUND('',#439,.F.);
#441=ADVANCED_FACE('',(#434,#440),#429,.F.);
#442=CARTESIAN_POINT('',(2.99E1,0.E0,0.E0));
#443=DIRECTION('',(-1.E0,0.E0,0.E0));
#444=DIRECTION('',(0.E0,0.E0,1.E0));
#445=AXIS2_PLACEMENT_3D('',#442,#443,#444);
#446=TOROIDAL_SURFACE('',#445,1.35E1,1.E-1);
#447=ORIENTED_EDGE('',*,*,#420,.F.);
#449=ORIENTED_EDGE('',*,*,#448,.F.);
#450=ORIENTED_EDGE('',*,*,#417,.T.);
#451=ORIENTED_EDGE('',*,*,#430,.T.);
#452=EDGE_LOOP('',(#447,#449,#450,#451));
#453=FACE_OUTER_BOUND('',#452,.F.);
#454=ADVANCED_FACE('',(#453),#446,.T.);
#455=CARTESIAN_POINT('',(-1.747792894758E1,0.E0,0.E0));
#456=DIRECTION('',(-1.E0,0.E0,0.E0));
#457=DIRECTION('',(0.E0,0.E0,1.E0));
#458=AXIS2_PLACEMENT_3D('',#455,#456,#457);
#459=CYLINDRICAL_SURFACE('',#458,1.36E1);
#460=ORIENTED_EDGE('',*,*,#405,.F.);
#461=ORIENTED_EDGE('',*,*,#375,.T.);
#462=ORIENTED_EDGE('',*,*,#402,.T.);
#463=ORIENTED_EDGE('',*,*,#448,.T.);
#464=EDGE_LOOP('',(#460,#461,#462,#463));
#465=FACE_OUTER_BOUND('',#464,.F.);
#466=ADVANCED_FACE('',(#465),#459,.T.);
#467=CARTESIAN_POINT('',(2.99E1,0.E0,0.E0));
#468=DIRECTION('',(-1.E0,0.E0,0.E0));
#469=DIRECTION('',(0.E0,0.E0,1.E0));
#470=AXIS2_PLACEMENT_3D('',#467,#468,#469);
#471=TOROIDAL_SURFACE('',#470,1.27E1,1.E-1);
#473=ORIENTED_EDGE('',*,*,#472,.F.);
#475=ORIENTED_EDGE('',*,*,#474,.F.);
#476=ORIENTED_EDGE('',*,*,#435,.T.);
#478=ORIENTED_EDGE('',*,*,#477,.T.);
#479=EDGE_LOOP('',(#473,#475,#476,#478));
#480=FACE_OUTER_BOUND('',#479,.F.);
#481=ADVANCED_FACE('',(#480),#471,.T.);
#482=CARTESIAN_POINT('',(-1.747792894758E1,0.E0,0.E0));
#483=DIRECTION('',(-1.E0,0.E0,0.E0));
#484=DIRECTION('',(0.E0,0.E0,1.E0));
#485=AXIS2_PLACEMENT_3D('',#482,#483,#484);
#486=CYLINDRICAL_SURFACE('',#485,1.26E1);
#488=ORIENTED_EDGE('',*,*,#487,.F.);
#490=ORIENTED_EDGE('',*,*,#489,.T.);
#492=ORIENTED_EDGE('',*,*,#491,.T.);
#493=ORIENTED_EDGE('',*,*,#472,.T.);
#494=EDGE_LOOP('',(#488,#490,#492,#493));
#495=FACE_OUTER_BOUND('',#494,.F.);
#496=ADVANCED_FACE('',(#495),#486,.F.);
#497=CARTESIAN_POINT('',(-1.747792894758E1,0.E0,0.E0));
#498=DIRECTION('',(-1.E0,0.E0,0.E0));
#499=DIRECTION('',(0.E0,0.E0,1.E0));
#500=AXIS2_PLACEMENT_3D('',#497,#498,#499);
#501=CYLINDRICAL_SURFACE('',#500,1.26E1);
#503=ORIENTED_EDGE('',*,*,#502,.T.);
#504=ORIENTED_EDGE('',*,*,#491,.F.);
#506=ORIENTED_EDGE('',*,*,#505,.T.);
#507=ORIENTED_EDGE('',*,*,#487,.T.);
#508=EDGE_LOOP('',(#503,#504,#506,#507));
#509=FACE_OUTER_BOUND('',#508,.F.);
#510=ADVANCED_FACE('',(#509),#501,.F.);
#511=CARTESIAN_POINT('',(2.99E1,0.E0,0.E0));
#512=DIRECTION('',(-1.E0,0.E0,0.E0));
#513=DIRECTION('',(0.E0,0.E0,1.E0));
#514=AXIS2_PLACEMENT_3D('',#511,#512,#513);
#515=TOROIDAL_SURFACE('',#514,1.27E1,1.E-1);
#516=ORIENTED_EDGE('',*,*,#477,.F.);
#517=ORIENTED_EDGE('',*,*,#437,.T.);
#518=ORIENTED_EDGE('',*,*,#474,.T.);
#519=ORIENTED_EDGE('',*,*,#502,.F.);
#520=EDGE_LOOP('',(#516,#517,#518,#519));
#521=FACE_OUTER_BOUND('',#520,.F.);
#522=ADVANCED_FACE('',(#521),#515,.T.);
#523=CARTESIAN_POINT('',(0.E0,0.E0,0.E0));
#524=DIRECTION('',(-1.E0,0.E0,0.E0));
#525=DIRECTION('',(0.E0,0.E0,1.E0));
#526=AXIS2_PLACEMENT_3D('',#523,#524,#525);
#527=TOROIDAL_SURFACE('',#526,1.35E1,2.E0);
#529=ORIENTED_EDGE('',*,*,#528,.F.);
#530=ORIENTED_EDGE('',*,*,#505,.F.);
#532=ORIENTED_EDGE('',*,*,#531,.T.);
#534=ORIENTED_EDGE('',*,*,#533,.T.);
#535=EDGE_LOOP('',(#529,#530,#532,#534));
#536=FACE_OUTER_BOUND('',#535,.F.);
#537=ADVANCED_FACE('',(#536),#527,.T.);
#538=CARTESIAN_POINT('',(0.E0,0.E0,0.E0));
#539=DIRECTION('',(-1.E0,0.E0,0.E0));
#540=DIRECTION('',(0.E0,0.E0,1.E0));
#541=AXIS2_PLACEMENT_3D('',#538,#539,#540);
#542=TOROIDAL_SURFACE('',#541,1.35E1,2.E0);
#543=ORIENTED_EDGE('',*,*,#531,.F.);
#544=ORIENTED_EDGE('',*,*,#489,.F.);
#545=ORIENTED_EDGE('',*,*,#528,.T.);
#547=ORIENTED_EDGE('',*,*,#546,.T.);
#548=EDGE_LOOP('',(#543,#544,#545,#547));
#549=FACE_OUTER_BOUND('',#548,.F.);
#550=ADVANCED_FACE('',(#549),#542,.T.);
#551=CARTESIAN_POINT('',(0.E0,0.E0,0.E0));
#552=DIRECTION('',(-1.E0,0.E0,0.E0));
#553=DIRECTION('',(0.E0,0.E0,1.E0));
#554=AXIS2_PLACEMENT_3D('',#551,#552,#553);
#555=TOROIDAL_SURFACE('',#554,1.35E1,2.E0);
#556=ORIENTED_EDGE('',*,*,#546,.F.);
#558=ORIENTED_EDGE('',*,*,#557,.T.);
#560=ORIENTED_EDGE('',*,*,#559,.F.);
#562=ORIENTED_EDGE('',*,*,#561,.F.);
#563=EDGE_LOOP('',(#556,#558,#560,#562));
#564=FACE_OUTER_BOUND('',#563,.F.);
#565=ADVANCED_FACE('',(#564),#555,.T.);
#566=CARTESIAN_POINT('',(0.E0,0.E0,0.E0));
#567=DIRECTION('',(-1.E0,0.E0,0.E0));
#568=DIRECTION('',(0.E0,0.E0,1.E0));
#569=AXIS2_PLACEMENT_3D('',#566,#567,#568);
#570=TOROIDAL_SURFACE('',#569,1.35E1,2.E0);
#571=ORIENTED_EDGE('',*,*,#533,.F.);
#572=ORIENTED_EDGE('',*,*,#561,.T.);
#574=ORIENTED_EDGE('',*,*,#573,.F.);
#575=ORIENTED_EDGE('',*,*,#557,.F.);
#576=EDGE_LOOP('',(#571,#572,#574,#575));
#577=FACE_OUTER_BOUND('',#576,.F.);
#578=ADVANCED_FACE('',(#577),#570,.T.);
#579=CARTESIAN_POINT('',(-1.747792894758E1,0.E0,0.E0));
#580=DIRECTION('',(-1.E0,0.E0,0.E0));
#581=DIRECTION('',(0.E0,0.E0,1.E0));
#582=AXIS2_PLACEMENT_3D('',#579,#580,#581);
#583=CYLINDRICAL_SURFACE('',#582,1.26E1);
#584=ORIENTED_EDGE('',*,*,#573,.T.);
#586=ORIENTED_EDGE('',*,*,#585,.F.);
#588=ORIENTED_EDGE('',*,*,#587,.T.);
#590=ORIENTED_EDGE('',*,*,#589,.T.);
#591=EDGE_LOOP('',(#584,#586,#588,#590));
#592=FACE_OUTER_BOUND('',#591,.F.);
#593=ADVANCED_FACE('',(#592),#583,.F.);
#594=CARTESIAN_POINT('',(-1.747792894758E1,0.E0,0.E0));
#595=DIRECTION('',(-1.E0,0.E0,0.E0));
#596=DIRECTION('',(0.E0,0.E0,1.E0));
#597=AXIS2_PLACEMENT_3D('',#594,#595,#596);
#598=CYLINDRICAL_SURFACE('',#597,1.26E1);
#599=ORIENTED_EDGE('',*,*,#589,.F.);
#601=ORIENTED_EDGE('',*,*,#600,.T.);
#602=ORIENTED_EDGE('',*,*,#585,.T.);
#603=ORIENTED_EDGE('',*,*,#559,.T.);
#604=EDGE_LOOP('',(#599,#601,#602,#603));
#605=FACE_OUTER_BOUND('',#604,.F.);
#606=ADVANCED_FACE('',(#605),#598,.F.);
#607=CARTESIAN_POINT('',(-2.99E1,0.E0,0.E0));
#608=DIRECTION('',(1.E0,0.E0,0.E0));
#609=DIRECTION('',(0.E0,0.E0,-1.E0));
#610=AXIS2_PLACEMENT_3D('',#607,#608,#609);
#611=TOROIDAL_SURFACE('',#610,1.27E1,1.E-1);
#612=ORIENTED_EDGE('',*,*,#600,.F.);
#614=ORIENTED_EDGE('',*,*,#613,.F.);
#616=ORIENTED_EDGE('',*,*,#615,.T.);
#618=ORIENTED_EDGE('',*,*,#617,.T.);
#619=EDGE_LOOP('',(#612,#614,#616,#618));
#620=FACE_OUTER_BOUND('',#619,.F.);
#621=ADVANCED_FACE('',(#620),#611,.T.);
#622=CARTESIAN_POINT('',(-2.99E1,0.E0,0.E0));
#623=DIRECTION('',(1.E0,0.E0,0.E0));
#624=DIRECTION('',(0.E0,0.E0,-1.E0));
#625=AXIS2_PLACEMENT_3D('',#622,#623,#624);
#626=TOROIDAL_SURFACE('',#625,1.27E1,1.E-1);
#627=ORIENTED_EDGE('',*,*,#617,.F.);
#629=ORIENTED_EDGE('',*,*,#628,.T.);
#630=ORIENTED_EDGE('',*,*,#613,.T.);
#631=ORIENTED_EDGE('',*,*,#587,.F.);
#632=EDGE_LOOP('',(#627,#629,#630,#631));
#633=FACE_OUTER_BOUND('',#632,.F.);
#634=ADVANCED_FACE('',(#633),#626,.T.);
#635=CARTESIAN_POINT('',(-3.E1,1.36E1,0.E0));
#636=DIRECTION('',(1.E0,0.E0,0.E0));
#637=DIRECTION('',(0.E0,0.E0,-1.E0));
#638=AXIS2_PLACEMENT_3D('',#635,#636,#637);
#639=PLANE('',#638);
#641=ORIENTED_EDGE('',*,*,#640,.F.);
#643=ORIENTED_EDGE('',*,*,#642,.F.);
#644=EDGE_LOOP('',(#641,#643));
#645=FACE_OUTER_BOUND('',#644,.F.);
#646=ORIENTED_EDGE('',*,*,#615,.F.);
#647=ORIENTED_EDGE('',*,*,#628,.F.);
#648=EDGE_LOOP('',(#646,#647));
#649=FACE_BOUND('',#648,.F.);
#650=ADVANCED_FACE('',(#645,#649),#639,.F.);
#651=CARTESIAN_POINT('',(-2.99E1,0.E0,0.E0));
#652=DIRECTION('',(1.E0,0.E0,0.E0));
#653=DIRECTION('',(0.E0,0.E0,-1.E0));
#654=AXIS2_PLACEMENT_3D('',#651,#652,#653);
#655=TOROIDAL_SURFACE('',#654,1.35E1,1.E-1);
#657=ORIENTED_EDGE('',*,*,#656,.F.);
#658=ORIENTED_EDGE('',*,*,#316,.F.);
#660=ORIENTED_EDGE('',*,*,#659,.T.);
#661=ORIENTED_EDGE('',*,*,#640,.T.);
#662=EDGE_LOOP('',(#657,#658,#660,#661));
#663=FACE_OUTER_BOUND('',#662,.F.);
#664=ADVANCED_FACE('',(#663),#655,.T.);
#665=CARTESIAN_POINT('',(-2.99E1,0.E0,0.E0));
#666=DIRECTION('',(1.E0,0.E0,0.E0));
#667=DIRECTION('',(0.E0,0.E0,-1.E0));
#668=AXIS2_PLACEMENT_3D('',#665,#666,#667);
#669=TOROIDAL_SURFACE('',#668,1.35E1,1.E-1);
#670=ORIENTED_EDGE('',*,*,#642,.T.);
#671=ORIENTED_EDGE('',*,*,#659,.F.);
#672=ORIENTED_EDGE('',*,*,#333,.F.);
#673=ORIENTED_EDGE('',*,*,#656,.T.);
#674=EDGE_LOOP('',(#670,#671,#672,#673));
#675=FACE_OUTER_BOUND('',#674,.F.);
#676=ADVANCED_FACE('',(#675),#669,.T.);
#677=CLOSED_SHELL('',(#324,#338,#353,#366,#381,#394,#409,#424,#441,#454,#466,
#481,#496,#510,#522,#537,#550,#565,#578,#593,#606,#621,#634,#650,#664,#676));
#678=MANIFOLD_SOLID_BREP('',#677);
#680=DIMENSIONAL_EXPONENTS(0.E0,0.E0,0.E0,0.E0,0.E0,0.E0,0.E0);
#682=PLANE_ANGLE_MEASURE_WITH_UNIT(PLANE_ANGLE_MEASURE(1.745329251994E-2),#681);
#683=(CONVERSION_BASED_UNIT('DEGREE',#682)NAMED_UNIT(*)PLANE_ANGLE_UNIT());
#685=UNCERTAINTY_MEASURE_WITH_UNIT(LENGTH_MEASURE(7.126902296038E-3),#679,
'closure',
'Maximum model space distance between geometric entities at asserted connectivities');
#686=(GEOMETRIC_REPRESENTATION_CONTEXT(3)GLOBAL_UNCERTAINTY_ASSIGNED_CONTEXT((
#685))GLOBAL_UNIT_ASSIGNED_CONTEXT((#679,#683,#684))REPRESENTATION_CONTEXT
('ID1','3'));
#688=APPLICATION_CONTEXT(
'CONFIGURATION CONTROLLED 3D DESIGNS OF MECHANICAL PARTS AND ASSEMBLIES');
#689=APPLICATION_PROTOCOL_DEFINITION('international standard',
'config_control_design',1994,#688);
#690=DESIGN_CONTEXT('',#688,'design');
#691=MECHANICAL_CONTEXT('',#688,'mechanical');
#692=PRODUCT('2046772','2046772','NOT SPECIFIED',(#691));
#693=PRODUCT_DEFINITION_FORMATION_WITH_SPECIFIED_SOURCE('1','LAST_VERSION',#692,
.MADE.);
#697=PRODUCT_CATEGORY('part','');
#698=PRODUCT_RELATED_PRODUCT_CATEGORY('detail','',(#692));
#699=PRODUCT_CATEGORY_RELATIONSHIP('','',#697,#698);
#700=SECURITY_CLASSIFICATION_LEVEL('unclassified');
#701=SECURITY_CLASSIFICATION('','',#700);
#702=CC_DESIGN_SECURITY_CLASSIFICATION(#701,(#693));
#703=APPROVAL_STATUS('approved');
#704=APPROVAL(#703,'');
#705=CC_DESIGN_APPROVAL(#704,(#701,#693,#694));
#706=CALENDAR_DATE(115,18,6);
#707=COORDINATED_UNIVERSAL_TIME_OFFSET(2,0,.AHEAD.);
#708=LOCAL_TIME(10,10,2.2E1,#707);
#709=DATE_AND_TIME(#706,#708);
#710=APPROVAL_DATE_TIME(#709,#704);
#711=DATE_TIME_ROLE('creation_date');
#712=CC_DESIGN_DATE_AND_TIME_ASSIGNMENT(#709,#711,(#694));
#713=DATE_TIME_ROLE('classification_date');
#714=CC_DESIGN_DATE_AND_TIME_ASSIGNMENT(#709,#713,(#701));
#715=PERSON('UNSPECIFIED','UNSPECIFIED',$,$,$,$);
#716=ORGANIZATION('UNSPECIFIED','UNSPECIFIED','UNSPECIFIED');
#717=PERSON_AND_ORGANIZATION(#715,#716);
#718=APPROVAL_ROLE('approver');
#719=APPROVAL_PERSON_ORGANIZATION(#717,#704,#718);
#720=PERSON_AND_ORGANIZATION_ROLE('creator');
#721=CC_DESIGN_PERSON_AND_ORGANIZATION_ASSIGNMENT(#717,#720,(#693,#694));
#722=PERSON_AND_ORGANIZATION_ROLE('design_supplier');
#723=CC_DESIGN_PERSON_AND_ORGANIZATION_ASSIGNMENT(#717,#722,(#693));
#724=PERSON_AND_ORGANIZATION_ROLE('classification_officer');
#725=CC_DESIGN_PERSON_AND_ORGANIZATION_ASSIGNMENT(#717,#724,(#701));
#726=PERSON_AND_ORGANIZATION_ROLE('design_owner');
#727=CC_DESIGN_PERSON_AND_ORGANIZATION_ASSIGNMENT(#717,#726,(#692));
#13=CIRCLE('',#12,1.36E1);
#18=CIRCLE('',#17,1.E0);
#23=CIRCLE('',#22,1.36E1);
#28=CIRCLE('',#27,1.E0);
#33=CIRCLE('',#32,1.25E1);
#38=CIRCLE('',#37,1.E0);
#43=CIRCLE('',#42,1.36E1);
#48=CIRCLE('',#47,1.25E1);
#53=CIRCLE('',#52,1.E0);
#58=CIRCLE('',#57,1.36E1);
#67=CIRCLE('',#66,1.E-1);
#72=CIRCLE('',#71,1.36E1);
#77=CIRCLE('',#76,1.35E1);
#82=CIRCLE('',#81,1.35E1);
#87=CIRCLE('',#86,1.27E1);
#92=CIRCLE('',#91,1.27E1);
#97=CIRCLE('',#96,1.E-1);
#102=CIRCLE('',#101,1.36E1);
#111=CIRCLE('',#110,1.26E1);
#116=CIRCLE('',#115,1.E-1);
#129=CIRCLE('',#128,1.E-1);
#134=CIRCLE('',#133,1.26E1);
#139=CIRCLE('',#138,2.E0);
#144=CIRCLE('',#143,1.26E1);
#149=CIRCLE('',#148,2.E0);
#154=CIRCLE('',#153,1.26E1);
#159=CIRCLE('',#158,1.15E1);
#164=CIRCLE('',#163,1.26E1);
#169=CIRCLE('',#168,2.E0);
#174=CIRCLE('',#173,1.15E1);
#179=CIRCLE('',#178,1.26E1);
#184=CIRCLE('',#183,2.E0);
#197=CIRCLE('',#196,1.26E1);
#202=CIRCLE('',#201,1.E-1);
#207=CIRCLE('',#206,1.E-1);
#212=CIRCLE('',#211,1.26E1);
#217=CIRCLE('',#216,1.35E1);
#222=CIRCLE('',#221,1.35E1);
#227=CIRCLE('',#226,1.27E1);
#232=CIRCLE('',#231,1.27E1);
#237=CIRCLE('',#236,1.E-1);
#242=CIRCLE('',#241,1.36E1);
#247=CIRCLE('',#246,1.E-1);
#252=CIRCLE('',#251,1.36E1);
#314=EDGE_CURVE('',#271,#272,#4,.T.);
#316=EDGE_CURVE('',#271,#281,#242,.T.);
#318=EDGE_CURVE('',#281,#282,#8,.T.);
#320=EDGE_CURVE('',#282,#272,#23,.T.);
#330=EDGE_CURVE('',#272,#282,#13,.T.);
#333=EDGE_CURVE('',#281,#271,#252,.T.);
#344=EDGE_CURVE('',#300,#282,#28,.T.);
#347=EDGE_CURVE('',#296,#272,#18,.T.);
#349=EDGE_CURVE('',#296,#300,#48,.T.);
#362=EDGE_CURVE('',#300,#296,#33,.T.);
#373=EDGE_CURVE('',#304,#300,#38,.T.);
#375=EDGE_CURVE('',#294,#304,#43,.T.);
#377=EDGE_CURVE('',#294,#296,#53,.T.);
#389=EDGE_CURVE('',#304,#294,#58,.T.);
#400=EDGE_CURVE('',#263,#276,#72,.T.);
#402=EDGE_CURVE('',#304,#276,#62,.T.);
#405=EDGE_CURVE('',#294,#263,#106,.T.);
#415=EDGE_CURVE('',#264,#290,#82,.T.);
#417=EDGE_CURVE('',#276,#290,#67,.T.);
#420=EDGE_CURVE('',#263,#264,#97,.T.);
#430=EDGE_CURVE('',#290,#264,#77,.T.);
#435=EDGE_CURVE('',#308,#306,#87,.T.);
#437=EDGE_CURVE('',#306,#308,#92,.T.);
#448=EDGE_CURVE('',#276,#263,#102,.T.);
#472=EDGE_CURVE('',#260,#298,#111,.T.);
#474=EDGE_CURVE('',#308,#260,#116,.T.);
#477=EDGE_CURVE('',#306,#298,#129,.T.);
#487=EDGE_CURVE('',#274,#298,#120,.T.);
#489=EDGE_CURVE('',#274,#259,#154,.T.);
#491=EDGE_CURVE('',#259,#260,#124,.T.);
#502=EDGE_CURVE('',#298,#260,#134,.T.);
#505=EDGE_CURVE('',#259,#274,#144,.T.);
#528=EDGE_CURVE('',#274,#302,#139,.T.);
#531=EDGE_CURVE('',#259,#278,#149,.T.);
#533=EDGE_CURVE('',#278,#302,#174,.T.);
#546=EDGE_CURVE('',#302,#278,#159,.T.);
#557=EDGE_CURVE('',#302,#292,#184,.T.);
#559=EDGE_CURVE('',#256,#292,#164,.T.);
#561=EDGE_CURVE('',#278,#256,#169,.T.);
#573=EDGE_CURVE('',#292,#256,#179,.T.);
#585=EDGE_CURVE('',#255,#256,#188,.T.);
#587=EDGE_CURVE('',#255,#284,#212,.T.);
#589=EDGE_CURVE('',#284,#292,#192,.T.);
#600=EDGE_CURVE('',#284,#255,#197,.T.);
#613=EDGE_CURVE('',#267,#284,#202,.T.);
#615=EDGE_CURVE('',#267,#268,#227,.T.);
#617=EDGE_CURVE('',#268,#255,#207,.T.);
#628=EDGE_CURVE('',#268,#267,#232,.T.);
#640=EDGE_CURVE('',#287,#288,#217,.T.);
#642=EDGE_CURVE('',#288,#287,#222,.T.);
#656=EDGE_CURVE('',#281,#288,#237,.T.);
#659=EDGE_CURVE('',#271,#287,#247,.T.);
#679=(LENGTH_UNIT()NAMED_UNIT(*)SI_UNIT(.MILLI.,.METRE.));
#681=(NAMED_UNIT(*)PLANE_ANGLE_UNIT()SI_UNIT($,.RADIAN.));
#684=(NAMED_UNIT(*)SI_UNIT($,.STERADIAN.)SOLID_ANGLE_UNIT());
#687=ADVANCED_BREP_SHAPE_REPRESENTATION('',(#678),#686);
#694=PRODUCT_DEFINITION('design','',#693,#690);
#695=PRODUCT_DEFINITION_SHAPE('','SHAPE FOR 2046772.',#694);
#696=SHAPE_DEFINITION_REPRESENTATION(#695,#687);
ENDSEC;
END-ISO-10303-21;
