ISO-10303-21;
HEADER;
FILE_DESCRIPTION (( 'STEP AP214' ),
    '1' );
FILE_NAME ('6193395.stp',
    '2016-08-10T13:02:39',
    ( '' ),
    ( '' ),
    'SwSTEP 2.0',
    'SolidWorks 2014',
    '' );
FILE_SCHEMA (( 'AUTOMOTIVE_DESIGN' ));
ENDSEC;

DATA;
#1 = CARTESIAN_POINT ( 'NONE',  ( -64.79999999999999700, -7.806255641895631900E-015, 0.0000000000000000000 ) ) ;
#2 = ORIENTED_EDGE ( 'NONE', *, *, #328, .F. ) ;
#3 = ADVANCED_FACE ( 'NONE', ( #248 ), #363, .T. ) ;
#4 = PLANE ( 'NONE',  #24 ) ;
#5 = CARTESIAN_POINT ( 'NONE',  ( 61.00000000000000000, 1.799999999999999800, -148.0999999999999900 ) ) ;
#6 = CARTESIAN_POINT ( 'NONE',  ( -61.00000000000000000, -7.806255641895631900E-015, -148.0000000000000000 ) ) ;
#7 = LINE ( 'NONE', #198, #94 ) ;
#8 = APPLICATION_PROTOCOL_DEFINITION ( 'draft international standard', 'automotive_design', 1998, #230 ) ;
#9 = LINE ( 'NONE', #68, #110 ) ;
#10 = DIRECTION ( 'NONE',  ( 0.0000000000000000000, 0.0000000000000000000, 1.000000000000000000 ) ) ;
#11 = ORIENTED_EDGE ( 'NONE', *, *, #257, .F. ) ;
#12 = ORIENTED_EDGE ( 'NONE', *, *, #132, .T. ) ;
#13 = CARTESIAN_POINT ( 'NONE',  ( 61.00000000000000000, 101.0000000000000000, -148.0999999999999900 ) ) ;
#14 = AXIS2_PLACEMENT_3D ( 'NONE', #236, #260, #10 ) ;
#15 = EDGE_CURVE ( 'NONE', #358, #353, #237, .T. ) ;
#16 = VECTOR ( 'NONE', #170, 1000.000000000000000 ) ;
#17 =( NAMED_UNIT ( * ) PLANE_ANGLE_UNIT ( ) SI_UNIT ( $, .RADIAN. ) );
#18 = CARTESIAN_POINT ( 'NONE',  ( -61.00000000000000000, 101.0000000000000000, -148.0999999999999900 ) ) ;
#19 = SURFACE_SIDE_STYLE ('',( #390 ) ) ;
#20 = EDGE_LOOP ( 'NONE', ( #118, #241, #369, #386, #288, #258 ) ) ;
#21 = PRODUCT_RELATED_PRODUCT_CATEGORY ( 'part', '', ( #62 ) ) ;
#22 = VECTOR ( 'NONE', #78, 1000.000000000000000 ) ;
#23 = ORIENTED_EDGE ( 'NONE', *, *, #75, .F. ) ;
#24 = AXIS2_PLACEMENT_3D ( 'NONE', #183, #335, #57 ) ;
#25 = DIRECTION ( 'NONE',  ( 0.0000000000000000000, 0.0000000000000000000, -1.000000000000000000 ) ) ;
#26 = ORIENTED_EDGE ( 'NONE', *, *, #188, .T. ) ;
#27 = DIRECTION ( 'NONE',  ( 0.0000000000000000000, 0.0000000000000000000, 1.000000000000000000 ) ) ;
#28 = ORIENTED_EDGE ( 'NONE', *, *, #247, .F. ) ;
#29 = CARTESIAN_POINT ( 'NONE',  ( 61.00000000000000000, 101.0000000000000000, -150.0000000000000000 ) ) ;
#30 = VERTEX_POINT ( 'NONE', #266 ) ;
#31 = VERTEX_POINT ( 'NONE', #187 ) ;
#32 = DIRECTION ( 'NONE',  ( -1.000000000000000000, -0.0000000000000000000, -0.0000000000000000000 ) ) ;
#33 = CARTESIAN_POINT ( 'NONE',  ( -61.00000000000000000, 1.799999999999999800, -148.0999999999999900 ) ) ;
#34 = UNCERTAINTY_MEASURE_WITH_UNIT (LENGTH_MEASURE( 1.000000000000000100E-005 ), #268, 'distance_accuracy_value', 'NONE');
#35 = DIRECTION ( 'NONE',  ( 1.000000000000000000, 0.0000000000000000000, 0.0000000000000000000 ) ) ;
#36 = LINE ( 'NONE', #243, #350 ) ;
#37 = EDGE_CURVE ( 'NONE', #200, #49, #251, .T. ) ;
#38 = LINE ( 'NONE', #192, #291 ) ;
#39 = DIRECTION ( 'NONE',  ( 0.0000000000000000000, -0.0000000000000000000, 1.000000000000000000 ) ) ;
#40 = EDGE_CURVE ( 'NONE', #130, #49, #306, .T. ) ;
#41 = COLOUR_RGB ( '',0.7529411764705882200, 0.7529411764705882200, 0.7529411764705882200 ) ;
#42 = DIRECTION ( 'NONE',  ( 1.000000000000000000, -0.0000000000000000000, -0.0000000000000000000 ) ) ;
#43 = AXIS2_PLACEMENT_3D ( 'NONE', #349, #139, #83 ) ;
#44 = DIRECTION ( 'NONE',  ( 1.000000000000000000, -0.0000000000000000000, -0.0000000000000000000 ) ) ;
#45 = DIRECTION ( 'NONE',  ( 1.000000000000000000, 0.0000000000000000000, -0.0000000000000000000 ) ) ;
#46 = EDGE_LOOP ( 'NONE', ( #66, #119, #11, #140 ) ) ;
#47 = DIRECTION ( 'NONE',  ( 0.0000000000000000000, 0.0000000000000000000, -1.000000000000000000 ) ) ;
#48 = VERTEX_POINT ( 'NONE', #29 ) ;
#49 = VERTEX_POINT ( 'NONE', #1 ) ;
#50 =( GEOMETRIC_REPRESENTATION_CONTEXT ( 3 ) GLOBAL_UNCERTAINTY_ASSIGNED_CONTEXT ( ( #374 ) ) GLOBAL_UNIT_ASSIGNED_CONTEXT ( ( #219, #17, #302 ) ) REPRESENTATION_CONTEXT ( 'NONE', 'WORKASPACE' ) );
#51 = DIRECTION ( 'NONE',  ( -1.000000000000000000, -0.0000000000000000000, -0.0000000000000000000 ) ) ;
#52 = EDGE_CURVE ( 'NONE', #213, #102, #36, .T. ) ;
#53 = CARTESIAN_POINT ( 'NONE',  ( -64.79999999999999700, -7.806255641895631900E-015, -148.0000000000000000 ) ) ;
#54 = LINE ( 'NONE', #218, #389 ) ;
#55 = PRESENTATION_LAYER_ASSIGNMENT (  '', '', ( #321 ) ) ;
#56 = ORIENTED_EDGE ( 'NONE', *, *, #168, .T. ) ;
#57 = DIRECTION ( 'NONE',  ( -1.000000000000000000, 0.0000000000000000000, -0.0000000000000000000 ) ) ;
#58 = VERTEX_POINT ( 'NONE', #6 ) ;
#59 = ADVANCED_FACE ( 'NONE', ( #98 ), #81, .F. ) ;
#60 = SURFACE_STYLE_FILL_AREA ( #222 ) ;
#61 = ORIENTED_EDGE ( 'NONE', *, *, #40, .T. ) ;
#62 = PRODUCT ( '6193395', '6193395', '', ( #91 ) ) ;
#63 = CARTESIAN_POINT ( 'NONE',  ( -61.00000000000000000, 101.0000000000000000, -150.0000000000000000 ) ) ;
#64 =( LENGTH_UNIT ( ) NAMED_UNIT ( * ) SI_UNIT ( .MILLI., .METRE. ) );
#65 = AXIS2_PLACEMENT_3D ( 'NONE', #341, #135, #283 ) ;
#66 = ORIENTED_EDGE ( 'NONE', *, *, #131, .T. ) ;
#67 = CARTESIAN_POINT ( 'NONE',  ( -61.00000000000000000, -3.148819142921778400E-016, -148.0000000000000000 ) ) ;
#68 = CARTESIAN_POINT ( 'NONE',  ( -64.79999999999999700, -7.806255641895631900E-015, -148.0000000000000000 ) ) ;
#69 = EDGE_LOOP ( 'NONE', ( #114, #208, #106, #346, #273, #211 ) ) ;
#70 = LINE ( 'NONE', #267, #103 ) ;
#71 = FILL_AREA_STYLE_COLOUR ( '', #229 ) ;
#72 = CARTESIAN_POINT ( 'NONE',  ( 64.14000000000000100, 13.63999999999999900, -148.0000000000000000 ) ) ;
#73 = FACE_OUTER_BOUND ( 'NONE', #352, .T. ) ;
#74 = DIRECTION ( 'NONE',  ( -0.0000000000000000000, -1.000000000000000000, -0.0000000000000000000 ) ) ;
#75 = EDGE_CURVE ( 'NONE', #126, #130, #276, .T. ) ;
#76 = DIRECTION ( 'NONE',  ( -0.0000000000000000000, 1.000000000000000000, -0.0000000000000000000 ) ) ;
#77 = DIRECTION ( 'NONE',  ( -0.0000000000000000000, -0.0000000000000000000, 1.000000000000000000 ) ) ;
#78 = DIRECTION ( 'NONE',  ( -0.0000000000000000000, -1.000000000000000000, -0.0000000000000000000 ) ) ;
#79 = CARTESIAN_POINT ( 'NONE',  ( 64.79999999999999700, 1.799999999999996000, -148.0000000000000000 ) ) ;
#80 = VERTEX_POINT ( 'NONE', #127 ) ;
#81 = PLANE ( 'NONE',  #191 ) ;
#82 = CARTESIAN_POINT ( 'NONE',  ( 64.79999999999999700, -7.806255641895631900E-015, -148.0000000000000000 ) ) ;
#83 = DIRECTION ( 'NONE',  ( 0.0000000000000000000, 0.0000000000000000000, 1.000000000000000000 ) ) ;
#84 =( NAMED_UNIT ( * ) SI_UNIT ( $, .STERADIAN. ) SOLID_ANGLE_UNIT ( ) );
#85 = LINE ( 'NONE', #99, #379 ) ;
#86 = ORIENTED_EDGE ( 'NONE', *, *, #75, .T. ) ;
#87 = ORIENTED_EDGE ( 'NONE', *, *, #217, .F. ) ;
#88 = DIRECTION ( 'NONE',  ( 1.000000000000000000, 0.0000000000000000000, 0.0000000000000000000 ) ) ;
#89 = VECTOR ( 'NONE', #256, 1000.000000000000000 ) ;
#90 = VECTOR ( 'NONE', #109, 1000.000000000000000 ) ;
#91 = PRODUCT_CONTEXT ( 'NONE', #231, 'mechanical' ) ;
#92 =( NAMED_UNIT ( * ) SI_UNIT ( $, .STERADIAN. ) SOLID_ANGLE_UNIT ( ) );
#93 = DIRECTION ( 'NONE',  ( -1.000000000000000000, 0.0000000000000000000, 0.0000000000000000000 ) ) ;
#94 = VECTOR ( 'NONE', #216, 1000.000000000000000 ) ;
#95 = FACE_OUTER_BOUND ( 'NONE', #330, .T. ) ;
#96 = ORIENTED_EDGE ( 'NONE', *, *, #309, .T. ) ;
#97 = ORIENTED_EDGE ( 'NONE', *, *, #15, .T. ) ;
#98 = FACE_OUTER_BOUND ( 'NONE', #46, .T. ) ;
#99 = CARTESIAN_POINT ( 'NONE',  ( 61.00000000000000000, 1.799999999999999800, -148.0000000000000000 ) ) ;
#100 = ADVANCED_FACE ( 'NONE', ( #73 ), #153, .T. ) ;
#101 = VECTOR ( 'NONE', #277, 1000.000000000000000 ) ;
#102 = VERTEX_POINT ( 'NONE', #362 ) ;
#103 = VECTOR ( 'NONE', #378, 1000.000000000000000 ) ;
#104 = CARTESIAN_POINT ( 'NONE',  ( 61.00000000000000000, 101.0000000000000000, -150.0000000000000000 ) ) ;
#105 = SHAPE_DEFINITION_REPRESENTATION ( #203, #295 ) ;
#106 = ORIENTED_EDGE ( 'NONE', *, *, #107, .T. ) ;
#107 = EDGE_CURVE ( 'NONE', #120, #210, #180, .T. ) ;
#108 = ORIENTED_EDGE ( 'NONE', *, *, #396, .T. ) ;
#109 = DIRECTION ( 'NONE',  ( -1.000000000000000000, -0.0000000000000000000, -0.0000000000000000000 ) ) ;
#110 = VECTOR ( 'NONE', #382, 1000.000000000000000 ) ;
#111 = VERTEX_POINT ( 'NONE', #290 ) ;
#112 = CARTESIAN_POINT ( 'NONE',  ( 61.00000000000000000, 101.0000000000000000, -150.0000000000000000 ) ) ;
#113 = LINE ( 'NONE', #179, #90 ) ;
#114 = ORIENTED_EDGE ( 'NONE', *, *, #257, .T. ) ;
#115 = CARTESIAN_POINT ( 'NONE',  ( -61.00000000000000000, 101.0000000000000000, -150.0000000000000000 ) ) ;
#116 = LINE ( 'NONE', #79, #194 ) ;
#117 = CARTESIAN_POINT ( 'NONE',  ( 64.79999999999999700, -7.806255641895631900E-015, 0.0000000000000000000 ) ) ;
#118 = ORIENTED_EDGE ( 'NONE', *, *, #131, .F. ) ;
#119 = ORIENTED_EDGE ( 'NONE', *, *, #161, .F. ) ;
#120 = VERTEX_POINT ( 'NONE', #164 ) ;
#121 = ADVANCED_FACE ( 'NONE', ( #181 ), #332, .T. ) ;
#122 = ORIENTED_EDGE ( 'NONE', *, *, #293, .T. ) ;
#123 = ORIENTED_EDGE ( 'NONE', *, *, #217, .T. ) ;
#124 = MECHANICAL_DESIGN_GEOMETRIC_PRESENTATION_REPRESENTATION (  '', ( #321 ), #370 ) ;
#125 = PLANE ( 'NONE',  #227 ) ;
#126 = VERTEX_POINT ( 'NONE', #359 ) ;
#127 = CARTESIAN_POINT ( 'NONE',  ( 61.00000000000000000, -3.148819142921778400E-016, -148.0000000000000000 ) ) ;
#128 = DIRECTION ( 'NONE',  ( -0.0000000000000000000, 0.0000000000000000000, 1.000000000000000000 ) ) ;
#129 = DIRECTION ( 'NONE',  ( 0.0000000000000000000, -0.0000000000000000000, -1.000000000000000000 ) ) ;
#130 = VERTEX_POINT ( 'NONE', #145 ) ;
#131 = EDGE_CURVE ( 'NONE', #305, #213, #158, .T. ) ;
#132 = EDGE_CURVE ( 'NONE', #162, #111, #271, .T. ) ;
#133 = EDGE_LOOP ( 'NONE', ( #87, #165, #264, #325, #246, #395, #96, #56 ) ) ;
#134 = AXIS2_PLACEMENT_3D ( 'NONE', #104, #186, #301 ) ;
#135 = DIRECTION ( 'NONE',  ( 0.0000000000000000000, 0.0000000000000000000, 1.000000000000000000 ) ) ;
#136 = ADVANCED_FACE ( 'NONE', ( #149 ), #125, .F. ) ;
#137 = ORIENTED_EDGE ( 'NONE', *, *, #357, .T. ) ;
#138 = VECTOR ( 'NONE', #300, 1000.000000000000000 ) ;
#139 = DIRECTION ( 'NONE',  ( -1.000000000000000000, 0.0000000000000000000, 0.0000000000000000000 ) ) ;
#140 = ORIENTED_EDGE ( 'NONE', *, *, #215, .T. ) ;
#141 = VECTOR ( 'NONE', #167, 1000.000000000000000 ) ;
#142 = LINE ( 'NONE', #289, #315 ) ;
#143 = CLOSED_SHELL ( 'NONE', ( #136, #100, #199, #250, #121, #340, #3, #59, #323, #282, #151, #235 ) ) ;
#144 = ORIENTED_EDGE ( 'NONE', *, *, #172, .T. ) ;
#145 = CARTESIAN_POINT ( 'NONE',  ( -64.79999999999999700, 1.799999999999996000, 0.0000000000000000000 ) ) ;
#146 = CARTESIAN_POINT ( 'NONE',  ( 61.00000000000000000, 1.799999999999999800, -148.0999999999999900 ) ) ;
#147 = CARTESIAN_POINT ( 'NONE',  ( 64.79999999999999700, 1.799999999999996000, -148.0000000000000000 ) ) ;
#148 = ORIENTED_EDGE ( 'NONE', *, *, #193, .F. ) ;
#149 = FACE_OUTER_BOUND ( 'NONE', #242, .T. ) ;
#150 = DIRECTION ( 'NONE',  ( 1.000000000000000000, 0.0000000000000000000, 0.0000000000000000000 ) ) ;
#151 = ADVANCED_FACE ( 'NONE', ( #252 ), #304, .F. ) ;
#152 = SURFACE_STYLE_USAGE ( .BOTH. , #334 ) ;
#153 = PLANE ( 'NONE',  #318 ) ;
#154 = CARTESIAN_POINT ( 'NONE',  ( -64.79999999999999700, 1.799999999999996000, -148.0000000000000000 ) ) ;
#155 = VECTOR ( 'NONE', #209, 1000.000000000000000 ) ;
#156 = ORIENTED_EDGE ( 'NONE', *, *, #37, .T. ) ;
#157 = FACE_OUTER_BOUND ( 'NONE', #373, .T. ) ;
#158 = LINE ( 'NONE', #63, #294 ) ;
#159 = VECTOR ( 'NONE', #347, 1000.000000000000000 ) ;
#160 =( NAMED_UNIT ( * ) PLANE_ANGLE_UNIT ( ) SI_UNIT ( $, .RADIAN. ) );
#161 = EDGE_CURVE ( 'NONE', #48, #213, #245, .T. ) ;
#162 = VERTEX_POINT ( 'NONE', #33 ) ;
#163 = PRESENTATION_STYLE_ASSIGNMENT (( #223 ) ) ;
#164 = CARTESIAN_POINT ( 'NONE',  ( 61.00000000000000000, 101.0000000000000000, -148.0999999999999900 ) ) ;
#165 = ORIENTED_EDGE ( 'NONE', *, *, #37, .F. ) ;
#166 = PLANE ( 'NONE',  #134 ) ;
#167 = DIRECTION ( 'NONE',  ( -1.000000000000000000, -0.0000000000000000000, -0.0000000000000000000 ) ) ;
#168 = EDGE_CURVE ( 'NONE', #358, #269, #400, .T. ) ;
#169 = FILL_AREA_STYLE_COLOUR ( '', #41 ) ;
#170 = DIRECTION ( 'NONE',  ( -0.0000000000000000000, 1.574409571460887700E-016, -1.000000000000000000 ) ) ;
#171 = ORIENTED_EDGE ( 'NONE', *, *, #354, .T. ) ;
#172 = EDGE_CURVE ( 'NONE', #353, #30, #113, .T. ) ;
#173 = DIRECTION ( 'NONE',  ( 0.0000000000000000000, -1.000000000000000000, 0.0000000000000000000 ) ) ;
#174 = VECTOR ( 'NONE', #255, 1000.000000000000000 ) ;
#175 = LINE ( 'NONE', #263, #367 ) ;
#176 = AXIS2_PLACEMENT_3D ( 'NONE', #72, #232, #45 ) ;
#177 = LINE ( 'NONE', #355, #89 ) ;
#178 = STYLED_ITEM ( 'NONE', ( #163 ), #295 ) ;
#179 = CARTESIAN_POINT ( 'NONE',  ( -63.00000000000000000, 1.799999999999996000, -148.0000000000000000 ) ) ;
#180 = LINE ( 'NONE', #13, #372 ) ;
#181 = FACE_OUTER_BOUND ( 'NONE', #375, .T. ) ;
#182 = EDGE_CURVE ( 'NONE', #111, #58, #310, .T. ) ;
#183 = CARTESIAN_POINT ( 'NONE',  ( 61.00000000000000000, 101.0000000000000000, -148.0999999999999900 ) ) ;
#184 = FACE_OUTER_BOUND ( 'NONE', #133, .T. ) ;
#185 = EDGE_LOOP ( 'NONE', ( #326, #338, #259, #398 ) ) ;
#186 = DIRECTION ( 'NONE',  ( 0.0000000000000000000, -1.000000000000000000, 0.0000000000000000000 ) ) ;
#187 = CARTESIAN_POINT ( 'NONE',  ( 61.00000000000000000, 0.0000000000000000000, -150.0000000000000000 ) ) ;
#188 = EDGE_CURVE ( 'NONE', #111, #126, #371, .T. ) ;
#189 = CARTESIAN_POINT ( 'NONE',  ( 61.00000000000000000, 0.0000000000000000000, -150.0000000000000000 ) ) ;
#190 = AXIS2_PLACEMENT_3D ( 'NONE', #313, #261, #129 ) ;
#191 = AXIS2_PLACEMENT_3D ( 'NONE', #254, #128, #88 ) ;
#192 = CARTESIAN_POINT ( 'NONE',  ( 61.00000000000000000, -3.148819142921778400E-016, -148.0000000000000000 ) ) ;
#193 = EDGE_CURVE ( 'NONE', #210, #30, #85, .T. ) ;
#194 = VECTOR ( 'NONE', #47, 1000.000000000000000 ) ;
#195 = EDGE_CURVE ( 'NONE', #48, #120, #278, .T. ) ;
#196 = CARTESIAN_POINT ( 'NONE',  ( 64.79999999999999700, -7.806255641895631900E-015, -148.0000000000000000 ) ) ;
#197 = DIRECTION ( 'NONE',  ( 0.0000000000000000000, 0.0000000000000000000, 1.000000000000000000 ) ) ;
#198 = CARTESIAN_POINT ( 'NONE',  ( 64.79999999999999700, -7.806255641895631900E-015, -148.0000000000000000 ) ) ;
#199 = ADVANCED_FACE ( 'NONE', ( #184 ), #249, .T. ) ;
#200 = VERTEX_POINT ( 'NONE', #274 ) ;
#201 = ORIENTED_EDGE ( 'NONE', *, *, #328, .T. ) ;
#202 = EDGE_LOOP ( 'NONE', ( #201, #61, #123, #122 ) ) ;
#203 = PRODUCT_DEFINITION_SHAPE ( 'NONE', 'NONE',  #275 ) ;
#204 = ORIENTED_EDGE ( 'NONE', *, *, #195, .F. ) ;
#205 = CARTESIAN_POINT ( 'NONE',  ( -64.79999999999999700, -7.806255641895631900E-015, -148.0000000000000000 ) ) ;
#206 = PLANE ( 'NONE',  #391 ) ;
#207 = EDGE_CURVE ( 'NONE', #120, #102, #70, .T. ) ;
#208 = ORIENTED_EDGE ( 'NONE', *, *, #195, .T. ) ;
#209 = DIRECTION ( 'NONE',  ( -0.0000000000000000000, -0.0000000000000000000, 1.000000000000000000 ) ) ;
#210 = VERTEX_POINT ( 'NONE', #5 ) ;
#211 = ORIENTED_EDGE ( 'NONE', *, *, #265, .T. ) ;
#212 = AXIS2_PLACEMENT_3D ( 'NONE', #272, #197, #35 ) ;
#213 = VERTEX_POINT ( 'NONE', #115 ) ;
#214 = CARTESIAN_POINT ( 'NONE',  ( -63.00000000000000000, 1.799999999999996000, -148.0000000000000000 ) ) ;
#215 = EDGE_CURVE ( 'NONE', #31, #305, #175, .T. ) ;
#216 = DIRECTION ( 'NONE',  ( 1.000000000000000000, -0.0000000000000000000, -0.0000000000000000000 ) ) ;
#217 = EDGE_CURVE ( 'NONE', #49, #269, #380, .T. ) ;
#218 = CARTESIAN_POINT ( 'NONE',  ( 64.79999999999999700, -7.806255641895631900E-015, -148.0000000000000000 ) ) ;
#219 =( LENGTH_UNIT ( ) NAMED_UNIT ( * ) SI_UNIT ( .MILLI., .METRE. ) );
#220 = EDGE_LOOP ( 'NONE', ( #312, #224, #204, #253 ) ) ;
#221 = MECHANICAL_DESIGN_GEOMETRIC_PRESENTATION_REPRESENTATION (  '', ( #178 ), #377 ) ;
#222 = FILL_AREA_STYLE ('',( #169 ) ) ;
#223 = SURFACE_STYLE_USAGE ( .BOTH. , #19 ) ;
#224 = ORIENTED_EDGE ( 'NONE', *, *, #207, .F. ) ;
#225 = VECTOR ( 'NONE', #74, 1000.000000000000000 ) ;
#226 = DIRECTION ( 'NONE',  ( 0.0000000000000000000, 0.0000000000000000000, 1.000000000000000000 ) ) ;
#227 = AXIS2_PLACEMENT_3D ( 'NONE', #281, #279, #307 ) ;
#228 = VECTOR ( 'NONE', #286, 1000.000000000000000 ) ;
#229 = COLOUR_RGB ( '',0.7529411764705882200, 0.7529411764705882200, 0.7529411764705882200 ) ;
#230 = APPLICATION_CONTEXT ( 'automotive_design' ) ;
#231 = APPLICATION_CONTEXT ( 'automotive_design' ) ;
#232 = DIRECTION ( 'NONE',  ( 0.0000000000000000000, 0.0000000000000000000, 1.000000000000000000 ) ) ;
#233 = VECTOR ( 'NONE', #385, 1000.000000000000000 ) ;
#234 = APPLICATION_PROTOCOL_DEFINITION ( 'draft international standard', 'automotive_design', 1998, #231 ) ;
#235 = ADVANCED_FACE ( 'NONE', ( #298 ), #240, .T. ) ;
#236 = CARTESIAN_POINT ( 'NONE',  ( 61.00000000000000000, 0.0000000000000000000, 0.0000000000000000000 ) ) ;
#237 = LINE ( 'NONE', #196, #287 ) ;
#238 = VECTOR ( 'NONE', #42, 1000.000000000000000 ) ;
#239 = MANIFOLD_SOLID_BREP ( 'Cut-Extrude1', #143 ) ;
#240 = PLANE ( 'NONE',  #43 ) ;
#241 = ORIENTED_EDGE ( 'NONE', *, *, #361, .F. ) ;
#242 = EDGE_LOOP ( 'NONE', ( #297, #360, #394, #364 ) ) ;
#243 = CARTESIAN_POINT ( 'NONE',  ( -61.00000000000000000, 101.0000000000000000, -150.0000000000000000 ) ) ;
#244 = ORIENTED_EDGE ( 'NONE', *, *, #207, .T. ) ;
#245 = LINE ( 'NONE', #342, #174 ) ;
#246 = ORIENTED_EDGE ( 'NONE', *, *, #215, .F. ) ;
#247 = EDGE_CURVE ( 'NONE', #210, #162, #270, .T. ) ;
#248 = FACE_OUTER_BOUND ( 'NONE', #202, .T. ) ;
#249 = PLANE ( 'NONE',  #190 ) ;
#250 = ADVANCED_FACE ( 'NONE', ( #95 ), #206, .T. ) ;
#251 = LINE ( 'NONE', #205, #336 ) ;
#252 = FACE_OUTER_BOUND ( 'NONE', #69, .T. ) ;
#253 = ORIENTED_EDGE ( 'NONE', *, *, #161, .T. ) ;
#254 = CARTESIAN_POINT ( 'NONE',  ( 61.00000000000000000, 101.0000000000000000, -150.0000000000000000 ) ) ;
#255 = DIRECTION ( 'NONE',  ( -1.000000000000000000, -0.0000000000000000000, -0.0000000000000000000 ) ) ;
#256 = DIRECTION ( 'NONE',  ( -0.0000000000000000000, 1.574409571460887700E-016, -1.000000000000000000 ) ) ;
#257 = EDGE_CURVE ( 'NONE', #31, #48, #142, .T. ) ;
#258 = ORIENTED_EDGE ( 'NONE', *, *, #52, .F. ) ;
#259 = ORIENTED_EDGE ( 'NONE', *, *, #182, .T. ) ;
#260 = DIRECTION ( 'NONE',  ( -1.000000000000000000, 0.0000000000000000000, 0.0000000000000000000 ) ) ;
#261 = DIRECTION ( 'NONE',  ( 0.0000000000000000000, -1.000000000000000000, 0.0000000000000000000 ) ) ;
#262 = LINE ( 'NONE', #311, #393 ) ;
#263 = CARTESIAN_POINT ( 'NONE',  ( 61.00000000000000000, 0.0000000000000000000, -150.0000000000000000 ) ) ;
#264 = ORIENTED_EDGE ( 'NONE', *, *, #280, .T. ) ;
#265 = EDGE_CURVE ( 'NONE', #80, #31, #329, .T. ) ;
#266 = CARTESIAN_POINT ( 'NONE',  ( 61.00000000000000000, 1.799999999999996000, -148.0000000000000000 ) ) ;
#267 = CARTESIAN_POINT ( 'NONE',  ( 61.00000000000000000, 101.0000000000000000, -148.0999999999999900 ) ) ;
#268 =( LENGTH_UNIT ( ) NAMED_UNIT ( * ) SI_UNIT ( .MILLI., .METRE. ) );
#269 = VERTEX_POINT ( 'NONE', #117 ) ;
#270 = LINE ( 'NONE', #146, #233 ) ;
#271 = LINE ( 'NONE', #388, #155 ) ;
#272 = CARTESIAN_POINT ( 'NONE',  ( 0.0000000000000000000, 0.0000000000000000000, 0.0000000000000000000 ) ) ;
#273 = ORIENTED_EDGE ( 'NONE', *, *, #376, .T. ) ;
#274 = CARTESIAN_POINT ( 'NONE',  ( -64.79999999999999700, -7.806255641895631900E-015, -148.0000000000000000 ) ) ;
#275 = PRODUCT_DEFINITION ( 'UNKNOWN', '', #387, #348 ) ;
#276 = LINE ( 'NONE', #154, #101 ) ;
#277 = DIRECTION ( 'NONE',  ( 0.0000000000000000000, 0.0000000000000000000, 1.000000000000000000 ) ) ;
#278 = LINE ( 'NONE', #112, #228 ) ;
#279 = DIRECTION ( 'NONE',  ( 0.0000000000000000000, 0.0000000000000000000, 1.000000000000000000 ) ) ;
#280 = EDGE_CURVE ( 'NONE', #200, #58, #7, .T. ) ;
#281 = CARTESIAN_POINT ( 'NONE',  ( 64.14000000000000100, 13.63999999999999900, -148.0000000000000000 ) ) ;
#282 = ADVANCED_FACE ( 'NONE', ( #157 ), #4, .F. ) ;
#283 = DIRECTION ( 'NONE',  ( 1.000000000000000000, 0.0000000000000000000, -0.0000000000000000000 ) ) ;
#284 = LINE ( 'NONE', #344, #159 ) ;
#285 = DIRECTION ( 'NONE',  ( 0.0000000000000000000, 0.0000000000000000000, 1.000000000000000000 ) ) ;
#286 = DIRECTION ( 'NONE',  ( 0.0000000000000000000, 0.0000000000000000000, 1.000000000000000000 ) ) ;
#287 = VECTOR ( 'NONE', #319, 1000.000000000000000 ) ;
#288 = ORIENTED_EDGE ( 'NONE', *, *, #357, .F. ) ;
#289 = CARTESIAN_POINT ( 'NONE',  ( 61.00000000000000000, 101.0000000000000000, -150.0000000000000000 ) ) ;
#290 = CARTESIAN_POINT ( 'NONE',  ( -61.00000000000000000, 1.799999999999996000, -148.0000000000000000 ) ) ;
#291 = VECTOR ( 'NONE', #345, 1000.000000000000000 ) ;
#292 = VECTOR ( 'NONE', #285, 1000.000000000000000 ) ;
#293 = EDGE_CURVE ( 'NONE', #269, #365, #284, .T. ) ;
#294 = VECTOR ( 'NONE', #76, 1000.000000000000000 ) ;
#295 = ADVANCED_BREP_SHAPE_REPRESENTATION ( '6193395', ( #239, #212 ), #50 ) ;
#296 = DIRECTION ( 'NONE',  ( 0.0000000000000000000, 0.0000000000000000000, 1.000000000000000000 ) ) ;
#297 = ORIENTED_EDGE ( 'NONE', *, *, #172, .F. ) ;
#298 = FACE_OUTER_BOUND ( 'NONE', #20, .T. ) ;
#299 = CARTESIAN_POINT ( 'NONE',  ( -63.00000000000000000, 1.799999999999996000, -148.0000000000000000 ) ) ;
#300 = DIRECTION ( 'NONE',  ( 0.0000000000000000000, -1.000000000000000000, 0.0000000000000000000 ) ) ;
#301 = DIRECTION ( 'NONE',  ( 0.0000000000000000000, -0.0000000000000000000, -1.000000000000000000 ) ) ;
#302 =( NAMED_UNIT ( * ) SI_UNIT ( $, .STERADIAN. ) SOLID_ANGLE_UNIT ( ) );
#303 = ORIENTED_EDGE ( 'NONE', *, *, #293, .F. ) ;
#304 = PLANE ( 'NONE',  #14 ) ;
#305 = VERTEX_POINT ( 'NONE', #337 ) ;
#306 = LINE ( 'NONE', #356, #225 ) ;
#307 = DIRECTION ( 'NONE',  ( 1.000000000000000000, 0.0000000000000000000, -0.0000000000000000000 ) ) ;
#308 = ORIENTED_EDGE ( 'NONE', *, *, #168, .F. ) ;
#309 = EDGE_CURVE ( 'NONE', #80, #358, #54, .T. ) ;
#310 = LINE ( 'NONE', #67, #22 ) ;
#311 = CARTESIAN_POINT ( 'NONE',  ( -63.00000000000000000, 1.799999999999996000, 0.0000000000000000000 ) ) ;
#312 = ORIENTED_EDGE ( 'NONE', *, *, #52, .T. ) ;
#313 = CARTESIAN_POINT ( 'NONE',  ( 64.79999999999999700, -7.806255641895631900E-015, -148.0000000000000000 ) ) ;
#314 = CARTESIAN_POINT ( 'NONE',  ( 64.79999999999999700, -7.806255641895631900E-015, -148.0000000000000000 ) ) ;
#315 = VECTOR ( 'NONE', #392, 1000.000000000000000 ) ;
#316 = PRESENTATION_LAYER_ASSIGNMENT (  '', '', ( #178 ) ) ;
#317 = CARTESIAN_POINT ( 'NONE',  ( 64.79999999999999700, -7.806255641895631900E-015, 0.0000000000000000000 ) ) ;
#318 = AXIS2_PLACEMENT_3D ( 'NONE', #324, #150, #25 ) ;
#319 = DIRECTION ( 'NONE',  ( 0.0000000000000000000, 1.000000000000000000, 0.0000000000000000000 ) ) ;
#320 = CARTESIAN_POINT ( 'NONE',  ( 64.79999999999999700, 1.799999999999996000, 0.0000000000000000000 ) ) ;
#321 = STYLED_ITEM ( 'NONE', ( #351 ), #239 ) ;
#322 = ORIENTED_EDGE ( 'NONE', *, *, #247, .T. ) ;
#323 = ADVANCED_FACE ( 'NONE', ( #383 ), #166, .F. ) ;
#324 = CARTESIAN_POINT ( 'NONE',  ( 64.79999999999999700, -7.806255641895631900E-015, -148.0000000000000000 ) ) ;
#325 = ORIENTED_EDGE ( 'NONE', *, *, #361, .T. ) ;
#326 = ORIENTED_EDGE ( 'NONE', *, *, #354, .F. ) ;
#327 = ORIENTED_EDGE ( 'NONE', *, *, #107, .F. ) ;
#328 = EDGE_CURVE ( 'NONE', #365, #130, #262, .T. ) ;
#329 = LINE ( 'NONE', #189, #16 ) ;
#330 = EDGE_LOOP ( 'NONE', ( #23, #171, #156, #339 ) ) ;
#331 = PLANE ( 'NONE',  #176 ) ;
#332 = PLANE ( 'NONE',  #368 ) ;
#333 = FACE_OUTER_BOUND ( 'NONE', #185, .T. ) ;
#334 = SURFACE_SIDE_STYLE ('',( #60 ) ) ;
#335 = DIRECTION ( 'NONE',  ( 0.0000000000000000000, 0.0000000000000000000, -1.000000000000000000 ) ) ;
#336 = VECTOR ( 'NONE', #296, 1000.000000000000000 ) ;
#337 = CARTESIAN_POINT ( 'NONE',  ( -61.00000000000000000, 0.0000000000000000000, -150.0000000000000000 ) ) ;
#338 = ORIENTED_EDGE ( 'NONE', *, *, #188, .F. ) ;
#339 = ORIENTED_EDGE ( 'NONE', *, *, #40, .F. ) ;
#340 = ADVANCED_FACE ( 'NONE', ( #333 ), #331, .F. ) ;
#341 = CARTESIAN_POINT ( 'NONE',  ( 64.14000000000000100, 13.63999999999999900, 0.0000000000000000000 ) ) ;
#342 = CARTESIAN_POINT ( 'NONE',  ( 61.00000000000000000, 101.0000000000000000, -150.0000000000000000 ) ) ;
#343 = LINE ( 'NONE', #18, #138 ) ;
#344 = CARTESIAN_POINT ( 'NONE',  ( 64.79999999999999700, -7.806255641895631900E-015, 0.0000000000000000000 ) ) ;
#345 = DIRECTION ( 'NONE',  ( -0.0000000000000000000, -1.000000000000000000, -0.0000000000000000000 ) ) ;
#346 = ORIENTED_EDGE ( 'NONE', *, *, #193, .T. ) ;
#347 = DIRECTION ( 'NONE',  ( 0.0000000000000000000, 1.000000000000000000, 0.0000000000000000000 ) ) ;
#348 = PRODUCT_DEFINITION_CONTEXT ( 'detailed design', #230, 'design' ) ;
#349 = CARTESIAN_POINT ( 'NONE',  ( -61.00000000000000000, 0.0000000000000000000, 0.0000000000000000000 ) ) ;
#350 = VECTOR ( 'NONE', #226, 1000.000000000000000 ) ;
#351 = PRESENTATION_STYLE_ASSIGNMENT (( #152 ) ) ;
#352 = EDGE_LOOP ( 'NONE', ( #366, #303, #308, #97 ) ) ;
#353 = VERTEX_POINT ( 'NONE', #147 ) ;
#354 = EDGE_CURVE ( 'NONE', #126, #200, #9, .T. ) ;
#355 = CARTESIAN_POINT ( 'NONE',  ( -61.00000000000000000, 0.0000000000000000000, -150.0000000000000000 ) ) ;
#356 = CARTESIAN_POINT ( 'NONE',  ( -64.79999999999999700, -7.806255641895631900E-015, 0.0000000000000000000 ) ) ;
#357 = EDGE_CURVE ( 'NONE', #102, #162, #343, .T. ) ;
#358 = VERTEX_POINT ( 'NONE', #314 ) ;
#359 = CARTESIAN_POINT ( 'NONE',  ( -64.79999999999999700, 1.799999999999996000, -148.0000000000000000 ) ) ;
#360 = ORIENTED_EDGE ( 'NONE', *, *, #15, .F. ) ;
#361 = EDGE_CURVE ( 'NONE', #58, #305, #177, .T. ) ;
#362 = CARTESIAN_POINT ( 'NONE',  ( -61.00000000000000000, 101.0000000000000000, -148.0999999999999900 ) ) ;
#363 = PLANE ( 'NONE',  #65 ) ;
#364 = ORIENTED_EDGE ( 'NONE', *, *, #376, .F. ) ;
#365 = VERTEX_POINT ( 'NONE', #320 ) ;
#366 = ORIENTED_EDGE ( 'NONE', *, *, #396, .F. ) ;
#367 = VECTOR ( 'NONE', #32, 1000.000000000000000 ) ;
#368 = AXIS2_PLACEMENT_3D ( 'NONE', #214, #384, #39 ) ;
#369 = ORIENTED_EDGE ( 'NONE', *, *, #182, .F. ) ;
#370 =( GEOMETRIC_REPRESENTATION_CONTEXT ( 3 ) GLOBAL_UNCERTAINTY_ASSIGNED_CONTEXT ( ( #34 ) ) GLOBAL_UNIT_ASSIGNED_CONTEXT ( ( #268, #381, #92 ) ) REPRESENTATION_CONTEXT ( 'NONE', 'WORKASPACE' ) );
#371 = LINE ( 'NONE', #299, #141 ) ;
#372 = VECTOR ( 'NONE', #173, 1000.000000000000000 ) ;
#373 = EDGE_LOOP ( 'NONE', ( #137, #28, #327, #244 ) ) ;
#374 = UNCERTAINTY_MEASURE_WITH_UNIT (LENGTH_MEASURE( 1.000000000000000100E-005 ), #219, 'distance_accuracy_value', 'NONE');
#375 = EDGE_LOOP ( 'NONE', ( #144, #148, #322, #12, #26, #86, #2, #108 ) ) ;
#376 = EDGE_CURVE ( 'NONE', #30, #80, #38, .T. ) ;
#377 =( GEOMETRIC_REPRESENTATION_CONTEXT ( 3 ) GLOBAL_UNCERTAINTY_ASSIGNED_CONTEXT ( ( #399 ) ) GLOBAL_UNIT_ASSIGNED_CONTEXT ( ( #64, #160, #84 ) ) REPRESENTATION_CONTEXT ( 'NONE', 'WORKASPACE' ) );
#378 = DIRECTION ( 'NONE',  ( -1.000000000000000000, -0.0000000000000000000, -0.0000000000000000000 ) ) ;
#379 = VECTOR ( 'NONE', #77, 1000.000000000000000 ) ;
#380 = LINE ( 'NONE', #317, #238 ) ;
#381 =( NAMED_UNIT ( * ) PLANE_ANGLE_UNIT ( ) SI_UNIT ( $, .RADIAN. ) );
#382 = DIRECTION ( 'NONE',  ( -0.0000000000000000000, -1.000000000000000000, -0.0000000000000000000 ) ) ;
#383 = FACE_OUTER_BOUND ( 'NONE', #220, .T. ) ;
#384 = DIRECTION ( 'NONE',  ( 0.0000000000000000000, 1.000000000000000000, 0.0000000000000000000 ) ) ;
#385 = DIRECTION ( 'NONE',  ( -1.000000000000000000, -0.0000000000000000000, -0.0000000000000000000 ) ) ;
#386 = ORIENTED_EDGE ( 'NONE', *, *, #132, .F. ) ;
#387 = PRODUCT_DEFINITION_FORMATION_WITH_SPECIFIED_SOURCE ( 'ANY', '', #62, .NOT_KNOWN. ) ;
#388 = CARTESIAN_POINT ( 'NONE',  ( -61.00000000000000000, 1.799999999999999800, -148.0000000000000000 ) ) ;
#389 = VECTOR ( 'NONE', #44, 1000.000000000000000 ) ;
#390 = SURFACE_STYLE_FILL_AREA ( #397 ) ;
#391 = AXIS2_PLACEMENT_3D ( 'NONE', #53, #93, #27 ) ;
#392 = DIRECTION ( 'NONE',  ( -0.0000000000000000000, 1.000000000000000000, -0.0000000000000000000 ) ) ;
#393 = VECTOR ( 'NONE', #51, 1000.000000000000000 ) ;
#394 = ORIENTED_EDGE ( 'NONE', *, *, #309, .F. ) ;
#395 = ORIENTED_EDGE ( 'NONE', *, *, #265, .F. ) ;
#396 = EDGE_CURVE ( 'NONE', #365, #353, #116, .T. ) ;
#397 = FILL_AREA_STYLE ('',( #71 ) ) ;
#398 = ORIENTED_EDGE ( 'NONE', *, *, #280, .F. ) ;
#399 = UNCERTAINTY_MEASURE_WITH_UNIT (LENGTH_MEASURE( 1.000000000000000100E-005 ), #64, 'distance_accuracy_value', 'NONE');
#400 = LINE ( 'NONE', #82, #292 ) ;
ENDSEC;
END-ISO-10303-21;
