ISO-10303-21;
HEADER;
FILE_DESCRIPTION (( 'STEP AP214' ),
    '1' );
FILE_NAME ('7205460.STEP',
    '2020-05-08T06:52:36',
    ( '' ),
    ( '' ),
    'SwSTEP 2.0',
    'SolidWorks 2018',
    '' );
FILE_SCHEMA (( 'AUTOMOTIVE_DESIGN' ));
ENDSEC;

DATA;
#1 = FILL_AREA_STYLE_COLOUR ( '', #255 ) ;
#2 = ADVANCED_FACE ( 'NONE', ( #252, #331 ), #251, .F. ) ;
#3 = FACE_BOUND ( 'NONE', #257, .T. ) ;
#4 = EDGE_LOOP ( 'NONE', ( #15, #181, #353, #157 ) ) ;
#5 =( NAMED_UNIT ( * ) SI_UNIT ( $, .STERADIAN. ) SOLID_ANGLE_UNIT ( ) );
#6 = ORIENTED_EDGE ( 'NONE', *, *, #107, .F. ) ;
#7 = SURFACE_STYLE_USAGE ( .BOTH. , #41 ) ;
#8 =( GEOMETRIC_REPRESENTATION_CONTEXT ( 3 ) GLOBAL_UNCERTAINTY_ASSIGNED_CONTEXT ( ( #216 ) ) GLOBAL_UNIT_ASSIGNED_CONTEXT ( ( #112, #174, #83 ) ) REPRESENTATION_CONTEXT ( 'NONE', 'WORKASPACE' ) );
#9 = PLANE ( 'NONE',  #391 ) ;
#10 = VECTOR ( 'NONE', #117, 1000.000000000000000 ) ;
#11 = PRESENTATION_STYLE_ASSIGNMENT (( #63 ) ) ;
#12 = FILL_AREA_STYLE ('',( #225 ) ) ;
#13 =( GEOMETRIC_REPRESENTATION_CONTEXT ( 3 ) GLOBAL_UNCERTAINTY_ASSIGNED_CONTEXT ( ( #102 ) ) GLOBAL_UNIT_ASSIGNED_CONTEXT ( ( #372, #37, #376 ) ) REPRESENTATION_CONTEXT ( 'NONE', 'WORKASPACE' ) );
#14 = PRESENTATION_STYLE_ASSIGNMENT (( #110 ) ) ;
#15 = ORIENTED_EDGE ( 'NONE', *, *, #235, .F. ) ;
#16 = AXIS2_PLACEMENT_3D ( 'NONE', #200, #224, #46 ) ;
#17 = PRESENTATION_LAYER_ASSIGNMENT (  '', '', ( #282 ) ) ;
#18 = CARTESIAN_POINT ( 'NONE',  ( 5.499999999999999112, 15.00000000000000000, -10.00099999999999767 ) ) ;
#19 = FACE_OUTER_BOUND ( 'NONE', #4, .T. ) ;
#20 = DIRECTION ( 'NONE',  ( -0.0000000000000000000, 0.0000000000000000000, 1.000000000000000000 ) ) ;
#21 = DIRECTION ( 'NONE',  ( -0.0000000000000000000, 0.0000000000000000000, 1.000000000000000000 ) ) ;
#22 = LINE ( 'NONE', #302, #39 ) ;
#23 = DIRECTION ( 'NONE',  ( -0.0000000000000000000, -0.0000000000000000000, -1.000000000000000000 ) ) ;
#24 = VECTOR ( 'NONE', #354, 1000.000000000000000 ) ;
#25 = ORIENTED_EDGE ( 'NONE', *, *, #198, .T. ) ;
#26 = CARTESIAN_POINT ( 'NONE',  ( 59.99999999999999289, 75.00000000000001421, -10.00000000000000000 ) ) ;
#27 = EDGE_LOOP ( 'NONE', ( #202, #35, #336, #276 ) ) ;
#28 = SURFACE_SIDE_STYLE ('',( #346 ) ) ;
#29 =( NAMED_UNIT ( * ) SI_UNIT ( $, .STERADIAN. ) SOLID_ANGLE_UNIT ( ) );
#30 =( NAMED_UNIT ( * ) PLANE_ANGLE_UNIT ( ) SI_UNIT ( $, .RADIAN. ) );
#31 = CARTESIAN_POINT ( 'NONE',  ( -60.00000000000002132, 74.99999999999998579, 10.00000000000000000 ) ) ;
#32 = ADVANCED_FACE ( 'NONE', ( #309 ), #368, .F. ) ;
#33 = SURFACE_STYLE_FILL_AREA ( #12 ) ;
#34 = EDGE_CURVE ( 'NONE', #146, #347, #118, .T. ) ;
#35 = ORIENTED_EDGE ( 'NONE', *, *, #45, .F. ) ;
#36 = SURFACE_STYLE_FILL_AREA ( #361 ) ;
#37 =( NAMED_UNIT ( * ) PLANE_ANGLE_UNIT ( ) SI_UNIT ( $, .RADIAN. ) );
#38 = SHAPE_DEFINITION_REPRESENTATION ( #142, #265 ) ;
#39 = VECTOR ( 'NONE', #127, 1000.000000000000000 ) ;
#40 = FILL_AREA_STYLE_COLOUR ( '', #68 ) ;
#41 = SURFACE_SIDE_STYLE ('',( #351 ) ) ;
#42 = CARTESIAN_POINT ( 'NONE',  ( -5.499999999999999112, 15.00000000000000000, -10.00000000000000000 ) ) ;
#43 = VECTOR ( 'NONE', #358, 1000.000000000000000 ) ;
#44 = VERTEX_POINT ( 'NONE', #289 ) ;
#45 = EDGE_CURVE ( 'NONE', #98, #90, #106, .T. ) ;
#46 = DIRECTION ( 'NONE',  ( -1.000000000000000000, 0.0000000000000000000, -0.0000000000000000000 ) ) ;
#47 = PRODUCT_CONTEXT ( 'NONE', #278, 'mechanical' ) ;
#48 = UNCERTAINTY_MEASURE_WITH_UNIT (LENGTH_MEASURE( 1.000000000000000082E-05 ), #277, 'distance_accuracy_value', 'NONE');
#49 = MECHANICAL_DESIGN_GEOMETRIC_PRESENTATION_REPRESENTATION (  '', ( #338 ), #147 ) ;
#50 = VECTOR ( 'NONE', #343, 1000.000000000000000 ) ;
#51 = STYLED_ITEM ( 'NONE', ( #65 ), #299 ) ;
#52 = AXIS2_PLACEMENT_3D ( 'NONE', #158, #20, #301 ) ;
#53 = DIRECTION ( 'NONE',  ( -0.0000000000000000000, -0.0000000000000000000, -1.000000000000000000 ) ) ;
#54 = LINE ( 'NONE', #293, #171 ) ;
#55 = ORIENTED_EDGE ( 'NONE', *, *, #34, .F. ) ;
#56 = DIRECTION ( 'NONE',  ( 1.000000000000000000, 2.312964634635742957E-16, -0.0000000000000000000 ) ) ;
#57 = FILL_AREA_STYLE ('',( #185 ) ) ;
#58 = CARTESIAN_POINT ( 'NONE',  ( -1.540743955509788682E-30, 15.00000000000000000, -10.00099999999999767 ) ) ;
#59 =( NAMED_UNIT ( * ) PLANE_ANGLE_UNIT ( ) SI_UNIT ( $, .RADIAN. ) );
#60 = SURFACE_STYLE_FILL_AREA ( #180 ) ;
#61 = ORIENTED_EDGE ( 'NONE', *, *, #67, .T. ) ;
#62 = ORIENTED_EDGE ( 'NONE', *, *, #67, .F. ) ;
#63 = SURFACE_STYLE_USAGE ( .BOTH. , #28 ) ;
#64 =( GEOMETRIC_REPRESENTATION_CONTEXT ( 3 ) GLOBAL_UNCERTAINTY_ASSIGNED_CONTEXT ( ( #306 ) ) GLOBAL_UNIT_ASSIGNED_CONTEXT ( ( #75, #199, #313 ) ) REPRESENTATION_CONTEXT ( 'NONE', 'WORKASPACE' ) );
#65 = PRESENTATION_STYLE_ASSIGNMENT (( #7 ) ) ;
#66 = SURFACE_STYLE_FILL_AREA ( #378 ) ;
#67 = EDGE_CURVE ( 'NONE', #123, #44, #138, .T. ) ;
#68 = COLOUR_RGB ( '',1.000000000000000000, 1.000000000000000000, 1.000000000000000000 ) ;
#69 = FACE_OUTER_BOUND ( 'NONE', #215, .T. ) ;
#70 = ORIENTED_EDGE ( 'NONE', *, *, #129, .F. ) ;
#71 = ORIENTED_EDGE ( 'NONE', *, *, #129, .T. ) ;
#72 = PRESENTATION_LAYER_ASSIGNMENT (  '', '', ( #338 ) ) ;
#73 = STYLED_ITEM ( 'NONE', ( #303 ), #239 ) ;
#74 = PRODUCT_DEFINITION_CONTEXT ( 'detailed design', #226, 'design' ) ;
#75 =( LENGTH_UNIT ( ) NAMED_UNIT ( * ) SI_UNIT ( .MILLI., .METRE. ) );
#76 = FACE_OUTER_BOUND ( 'NONE', #156, .T. ) ;
#77 = CARTESIAN_POINT ( 'NONE',  ( 0.0000000000000000000, 0.0000000000000000000, -10.00000000000000000 ) ) ;
#78 = MECHANICAL_DESIGN_GEOMETRIC_PRESENTATION_REPRESENTATION (  '', ( #73 ), #183 ) ;
#79 =( GEOMETRIC_REPRESENTATION_CONTEXT ( 3 ) GLOBAL_UNCERTAINTY_ASSIGNED_CONTEXT ( ( #323 ) ) GLOBAL_UNIT_ASSIGNED_CONTEXT ( ( #89, #30, #87 ) ) REPRESENTATION_CONTEXT ( 'NONE', 'WORKASPACE' ) );
#80 = CARTESIAN_POINT ( 'NONE',  ( -60.00000000000000000, -75.00000000000001421, 10.00000000000000000 ) ) ;
#81 = PLANE ( 'NONE',  #266 ) ;
#82 = PRESENTATION_STYLE_ASSIGNMENT (( #168 ) ) ;
#83 =( NAMED_UNIT ( * ) SI_UNIT ( $, .STERADIAN. ) SOLID_ANGLE_UNIT ( ) );
#84 = DIRECTION ( 'NONE',  ( -1.387778780781445676E-16, 1.000000000000000000, -0.0000000000000000000 ) ) ;
#85 = CARTESIAN_POINT ( 'NONE',  ( 59.99999999999999289, 75.00000000000001421, 10.00000000000000000 ) ) ;
#86 = EDGE_CURVE ( 'NONE', #381, #44, #356, .T. ) ;
#87 =( NAMED_UNIT ( * ) SI_UNIT ( $, .STERADIAN. ) SOLID_ANGLE_UNIT ( ) );
#88 = PRESENTATION_STYLE_ASSIGNMENT (( #182 ) ) ;
#89 =( LENGTH_UNIT ( ) NAMED_UNIT ( * ) SI_UNIT ( .MILLI., .METRE. ) );
#90 = VERTEX_POINT ( 'NONE', #385 ) ;
#91 = MECHANICAL_DESIGN_GEOMETRIC_PRESENTATION_REPRESENTATION (  '', ( #51 ), #64 ) ;
#92 = EDGE_CURVE ( 'NONE', #146, #352, #54, .T. ) ;
#93 = PRESENTATION_STYLE_ASSIGNMENT (( #362 ) ) ;
#94 = CIRCLE ( 'NONE', #52, 5.499999999999999112 ) ;
#95 = ORIENTED_EDGE ( 'NONE', *, *, #92, .F. ) ;
#96 = DIRECTION ( 'NONE',  ( 1.000000000000000000, 0.0000000000000000000, 0.0000000000000000000 ) ) ;
#97 = VECTOR ( 'NONE', #120, 1000.000000000000000 ) ;
#98 = VERTEX_POINT ( 'NONE', #261 ) ;
#99 = SURFACE_STYLE_USAGE ( .BOTH. , #253 ) ;
#100 = DIRECTION ( 'NONE',  ( 1.387778780781445676E-16, -1.000000000000000000, 0.0000000000000000000 ) ) ;
#101 = STYLED_ITEM ( 'NONE', ( #11 ), #159 ) ;
#102 = UNCERTAINTY_MEASURE_WITH_UNIT (LENGTH_MEASURE( 1.000000000000000082E-05 ), #372, 'distance_accuracy_value', 'NONE');
#103 = FILL_AREA_STYLE ('',( #247 ) ) ;
#104 = CARTESIAN_POINT ( 'NONE',  ( 5.499999999999999112, 15.00000000000000000, -10.00000000000000000 ) ) ;
#105 =( LENGTH_UNIT ( ) NAMED_UNIT ( * ) SI_UNIT ( .MILLI., .METRE. ) );
#106 = LINE ( 'NONE', #80, #260 ) ;
#107 = EDGE_CURVE ( 'NONE', #342, #381, #190, .T. ) ;
#108 = VERTEX_POINT ( 'NONE', #383 ) ;
#109 = DIRECTION ( 'NONE',  ( -0.0000000000000000000, -0.0000000000000000000, 1.000000000000000000 ) ) ;
#110 = SURFACE_STYLE_USAGE ( .BOTH. , #170 ) ;
#111 = AXIS2_PLACEMENT_3D ( 'NONE', #135, #245, #100 ) ;
#112 =( LENGTH_UNIT ( ) NAMED_UNIT ( * ) SI_UNIT ( .MILLI., .METRE. ) );
#113 = ORIENTED_EDGE ( 'NONE', *, *, #136, .T. ) ;
#114 = EDGE_CURVE ( 'NONE', #347, #197, #242, .T. ) ;
#115 = ADVANCED_FACE ( 'NONE', ( #320 ), #81, .F. ) ;
#116 = LINE ( 'NONE', #119, #287 ) ;
#117 = DIRECTION ( 'NONE',  ( -1.000000000000000000, -2.312964634635742957E-16, 0.0000000000000000000 ) ) ;
#118 = LINE ( 'NONE', #229, #321 ) ;
#119 = CARTESIAN_POINT ( 'NONE',  ( -5.499999999999999112, 15.00000000000000000, -10.00099999999999767 ) ) ;
#120 = DIRECTION ( 'NONE',  ( -1.387778780781445676E-16, 1.000000000000000000, -0.0000000000000000000 ) ) ;
#121 = CARTESIAN_POINT ( 'NONE',  ( -60.00000000000002132, 74.99999999999998579, 10.00000000000000000 ) ) ;
#122 = EDGE_CURVE ( 'NONE', #352, #227, #329, .T. ) ;
#123 = VERTEX_POINT ( 'NONE', #232 ) ;
#124 =( NAMED_UNIT ( * ) SI_UNIT ( $, .STERADIAN. ) SOLID_ANGLE_UNIT ( ) );
#125 = ORIENTED_EDGE ( 'NONE', *, *, #45, .T. ) ;
#126 = ADVANCED_FACE ( 'NONE', ( #69 ), #178, .F. ) ;
#127 = DIRECTION ( 'NONE',  ( 1.387778780781445676E-16, -1.000000000000000000, 0.0000000000000000000 ) ) ;
#128 = FACE_OUTER_BOUND ( 'NONE', #305, .T. ) ;
#129 = EDGE_CURVE ( 'NONE', #98, #146, #155, .T. ) ;
#130 =( LENGTH_UNIT ( ) NAMED_UNIT ( * ) SI_UNIT ( .MILLI., .METRE. ) );
#131 = CARTESIAN_POINT ( 'NONE',  ( -60.00000000000002132, 74.99999999999998579, 10.00000000000000000 ) ) ;
#132 = ORIENTED_EDGE ( 'NONE', *, *, #254, .T. ) ;
#133 = PLANE ( 'NONE',  #111 ) ;
#134 = ORIENTED_EDGE ( 'NONE', *, *, #150, .F. ) ;
#135 = CARTESIAN_POINT ( 'NONE',  ( 59.99999999999999289, 75.00000000000001421, 10.00000000000000000 ) ) ;
#136 = EDGE_CURVE ( 'NONE', #381, #342, #94, .T. ) ;
#137 = SURFACE_SIDE_STYLE ('',( #233 ) ) ;
#138 = CIRCLE ( 'NONE', #161, 5.499999999999999112 ) ;
#139 =( NAMED_UNIT ( * ) SI_UNIT ( $, .STERADIAN. ) SOLID_ANGLE_UNIT ( ) );
#140 = DIRECTION ( 'NONE',  ( -1.000000000000000000, -2.312964634635742957E-16, 0.0000000000000000000 ) ) ;
#141 = AXIS2_PLACEMENT_3D ( 'NONE', #58, #330, #160 ) ;
#142 = PRODUCT_DEFINITION_SHAPE ( 'NONE', 'NONE',  #240 ) ;
#143 = UNCERTAINTY_MEASURE_WITH_UNIT (LENGTH_MEASURE( 1.000000000000000082E-05 ), #294, 'distance_accuracy_value', 'NONE');
#144 = PRESENTATION_LAYER_ASSIGNMENT (  '', '', ( #234 ) ) ;
#145 = COLOUR_RGB ( '',0.7529411764705882248, 0.7529411764705882248, 0.7529411764705882248 ) ;
#146 = VERTEX_POINT ( 'NONE', #334 ) ;
#147 =( GEOMETRIC_REPRESENTATION_CONTEXT ( 3 ) GLOBAL_UNCERTAINTY_ASSIGNED_CONTEXT ( ( #284 ) ) GLOBAL_UNIT_ASSIGNED_CONTEXT ( ( #392, #327, #29 ) ) REPRESENTATION_CONTEXT ( 'NONE', 'WORKASPACE' ) );
#148 = CARTESIAN_POINT ( 'NONE',  ( -1.540743955509788682E-30, 15.00000000000000000, 10.00000000000000000 ) ) ;
#149 = DIRECTION ( 'NONE',  ( -0.0000000000000000000, -0.0000000000000000000, 1.000000000000000000 ) ) ;
#150 = EDGE_CURVE ( 'NONE', #197, #108, #308, .T. ) ;
#151 = PLANE ( 'NONE',  #344 ) ;
#152 = UNCERTAINTY_MEASURE_WITH_UNIT (LENGTH_MEASURE( 1.000000000000000082E-05 ), #184, 'distance_accuracy_value', 'NONE');
#153 = SURFACE_SIDE_STYLE ('',( #36 ) ) ;
#154 = SURFACE_SIDE_STYLE ('',( #60 ) ) ;
#155 = LINE ( 'NONE', #211, #304 ) ;
#156 = EDGE_LOOP ( 'NONE', ( #317, #134, #191, #382 ) ) ;
#157 = ORIENTED_EDGE ( 'NONE', *, *, #254, .F. ) ;
#158 = CARTESIAN_POINT ( 'NONE',  ( -1.540743955509788682E-30, 15.00000000000000000, -10.00000000000000000 ) ) ;
#159 = ADVANCED_FACE ( 'NONE', ( #76 ), #151, .F. ) ;
#160 = DIRECTION ( 'NONE',  ( 1.000000000000000000, 0.0000000000000000000, 0.0000000000000000000 ) ) ;
#161 = AXIS2_PLACEMENT_3D ( 'NONE', #148, #295, #290 ) ;
#162 = PRESENTATION_STYLE_ASSIGNMENT (( #209 ) ) ;
#163 = DIRECTION ( 'NONE',  ( 0.0000000000000000000, 0.0000000000000000000, 1.000000000000000000 ) ) ;
#164 =( NAMED_UNIT ( * ) PLANE_ANGLE_UNIT ( ) SI_UNIT ( $, .RADIAN. ) );
#165 = ORIENTED_EDGE ( 'NONE', *, *, #192, .F. ) ;
#166 = SURFACE_SIDE_STYLE ('',( #238 ) ) ;
#167 = FILL_AREA_STYLE ('',( #1 ) ) ;
#168 = SURFACE_STYLE_USAGE ( .BOTH. , #166 ) ;
#169 = DIRECTION ( 'NONE',  ( 1.000000000000000000, 1.387778780781445676E-16, -0.0000000000000000000 ) ) ;
#170 = SURFACE_SIDE_STYLE ('',( #33 ) ) ;
#171 = VECTOR ( 'NONE', #350, 1000.000000000000000 ) ;
#172 = ORIENTED_EDGE ( 'NONE', *, *, #136, .F. ) ;
#173 = FILL_AREA_STYLE_COLOUR ( '', #201 ) ;
#174 =( NAMED_UNIT ( * ) PLANE_ANGLE_UNIT ( ) SI_UNIT ( $, .RADIAN. ) );
#175 = COLOUR_RGB ( '',0.7529411764705882248, 0.7529411764705882248, 0.7529411764705882248 ) ;
#176 = EDGE_CURVE ( 'NONE', #342, #123, #116, .T. ) ;
#177 =( GEOMETRIC_REPRESENTATION_CONTEXT ( 3 ) GLOBAL_UNCERTAINTY_ASSIGNED_CONTEXT ( ( #143 ) ) GLOBAL_UNIT_ASSIGNED_CONTEXT ( ( #294, #59, #124 ) ) REPRESENTATION_CONTEXT ( 'NONE', 'WORKASPACE' ) );
#178 = CYLINDRICAL_SURFACE ( 'NONE', #141, 5.499999999999999112 ) ;
#179 = FILL_AREA_STYLE_COLOUR ( '', #389 ) ;
#180 = FILL_AREA_STYLE ('',( #231 ) ) ;
#181 = ORIENTED_EDGE ( 'NONE', *, *, #210, .F. ) ;
#182 = SURFACE_STYLE_USAGE ( .BOTH. , #153 ) ;
#183 =( GEOMETRIC_REPRESENTATION_CONTEXT ( 3 ) GLOBAL_UNCERTAINTY_ASSIGNED_CONTEXT ( ( #48 ) ) GLOBAL_UNIT_ASSIGNED_CONTEXT ( ( #277, #341, #345 ) ) REPRESENTATION_CONTEXT ( 'NONE', 'WORKASPACE' ) );
#184 =( LENGTH_UNIT ( ) NAMED_UNIT ( * ) SI_UNIT ( .MILLI., .METRE. ) );
#185 = FILL_AREA_STYLE_COLOUR ( '', #187 ) ;
#186 = PRESENTATION_LAYER_ASSIGNMENT (  '', '', ( #291 ) ) ;
#187 = COLOUR_RGB ( '',0.7529411764705882248, 0.7529411764705882248, 0.7529411764705882248 ) ;
#188 =( NAMED_UNIT ( * ) SI_UNIT ( $, .STERADIAN. ) SOLID_ANGLE_UNIT ( ) );
#189 = STYLED_ITEM ( 'NONE', ( #82 ), #335 ) ;
#190 = CIRCLE ( 'NONE', #249, 5.499999999999999112 ) ;
#191 = ORIENTED_EDGE ( 'NONE', *, *, #114, .F. ) ;
#192 = EDGE_CURVE ( 'NONE', #347, #227, #204, .T. ) ;
#193 = SURFACE_STYLE_USAGE ( .BOTH. , #137 ) ;
#194 = CARTESIAN_POINT ( 'NONE',  ( 60.00000000000001421, -74.99999999999998579, -10.00000000000000000 ) ) ;
#195 =( LENGTH_UNIT ( ) NAMED_UNIT ( * ) SI_UNIT ( .MILLI., .METRE. ) );
#196 = PRODUCT_RELATED_PRODUCT_CATEGORY ( 'part', '', ( #387 ) ) ;
#197 = VERTEX_POINT ( 'NONE', #121 ) ;
#198 = EDGE_CURVE ( 'NONE', #197, #98, #388, .T. ) ;
#199 =( NAMED_UNIT ( * ) PLANE_ANGLE_UNIT ( ) SI_UNIT ( $, .RADIAN. ) );
#200 = CARTESIAN_POINT ( 'NONE',  ( 0.0000000000000000000, 0.0000000000000000000, 10.00000000000000000 ) ) ;
#201 = COLOUR_RGB ( '',0.7529411764705882248, 0.7529411764705882248, 0.7529411764705882248 ) ;
#202 = ORIENTED_EDGE ( 'NONE', *, *, #235, .T. ) ;
#203 = FILL_AREA_STYLE_COLOUR ( '', #373 ) ;
#204 = LINE ( 'NONE', #85, #377 ) ;
#205 = ORIENTED_EDGE ( 'NONE', *, *, #228, .F. ) ;
#206 = ORIENTED_EDGE ( 'NONE', *, *, #228, .T. ) ;
#207 = ORIENTED_EDGE ( 'NONE', *, *, #86, .F. ) ;
#208 = CARTESIAN_POINT ( 'NONE',  ( 59.99999999999999289, 75.00000000000001421, 10.00000000000000000 ) ) ;
#209 = SURFACE_STYLE_USAGE ( .BOTH. , #213 ) ;
#210 = EDGE_CURVE ( 'NONE', #227, #108, #292, .T. ) ;
#211 = CARTESIAN_POINT ( 'NONE',  ( 60.00000000000001421, -74.99999999999998579, 10.00000000000000000 ) ) ;
#212 = MECHANICAL_DESIGN_GEOMETRIC_PRESENTATION_REPRESENTATION (  '', ( #101 ), #177 ) ;
#213 = SURFACE_SIDE_STYLE ('',( #316 ) ) ;
#214 = ORIENTED_EDGE ( 'NONE', *, *, #86, .T. ) ;
#215 = EDGE_LOOP ( 'NONE', ( #298, #172, #214, #206 ) ) ;
#216 = UNCERTAINTY_MEASURE_WITH_UNIT (LENGTH_MEASURE( 1.000000000000000082E-05 ), #112, 'distance_accuracy_value', 'NONE');
#217 =( GEOMETRIC_REPRESENTATION_CONTEXT ( 3 ) GLOBAL_UNCERTAINTY_ASSIGNED_CONTEXT ( ( #152 ) ) GLOBAL_UNIT_ASSIGNED_CONTEXT ( ( #184, #394, #188 ) ) REPRESENTATION_CONTEXT ( 'NONE', 'WORKASPACE' ) );
#218 = MANIFOLD_SOLID_BREP ( 'Extrude2', #268 ) ;
#219 = EDGE_LOOP ( 'NONE', ( #132, #95, #70, #125 ) ) ;
#220 = DIRECTION ( 'NONE',  ( 0.0000000000000000000, 0.0000000000000000000, -1.000000000000000000 ) ) ;
#221 = PLANE ( 'NONE',  #280 ) ;
#222 = COLOUR_RGB ( '',1.000000000000000000, 1.000000000000000000, 1.000000000000000000 ) ;
#223 = PRESENTATION_LAYER_ASSIGNMENT (  '', '', ( #51 ) ) ;
#224 = DIRECTION ( 'NONE',  ( 0.0000000000000000000, 0.0000000000000000000, -1.000000000000000000 ) ) ;
#225 = FILL_AREA_STYLE_COLOUR ( '', #288 ) ;
#226 = APPLICATION_CONTEXT ( 'automotive_design' ) ;
#227 = VERTEX_POINT ( 'NONE', #264 ) ;
#228 = EDGE_CURVE ( 'NONE', #44, #123, #364, .T. ) ;
#229 = CARTESIAN_POINT ( 'NONE',  ( 59.99999999999999289, 75.00000000000001421, 10.00000000000000000 ) ) ;
#230 = DIRECTION ( 'NONE',  ( -1.000000000000000000, 0.0000000000000000000, 0.0000000000000000000 ) ) ;
#231 = FILL_AREA_STYLE_COLOUR ( '', #222 ) ;
#232 = CARTESIAN_POINT ( 'NONE',  ( -5.499999999999999112, 15.00000000000000000, 10.00000000000000000 ) ) ;
#233 = SURFACE_STYLE_FILL_AREA ( #375 ) ;
#234 = STYLED_ITEM ( 'NONE', ( #237 ), #265 ) ;
#235 = EDGE_CURVE ( 'NONE', #108, #90, #22, .T. ) ;
#236 = MECHANICAL_DESIGN_GEOMETRIC_PRESENTATION_REPRESENTATION (  '', ( #282 ), #79 ) ;
#237 = PRESENTATION_STYLE_ASSIGNMENT (( #193 ) ) ;
#238 = SURFACE_STYLE_FILL_AREA ( #339 ) ;
#239 = ADVANCED_FACE ( 'NONE', ( #355 ), #9, .F. ) ;
#240 = PRODUCT_DEFINITION ( 'UNKNOWN', '', #340, #74 ) ;
#241 = PRESENTATION_LAYER_ASSIGNMENT (  '', '', ( #101 ) ) ;
#242 = LINE ( 'NONE', #208, #379 ) ;
#243 = CARTESIAN_POINT ( 'NONE',  ( 0.0000000000000000000, 0.0000000000000000000, 0.0000000000000000000 ) ) ;
#244 = DIRECTION ( 'NONE',  ( 1.000000000000000000, 0.0000000000000000000, 0.0000000000000000000 ) ) ;
#245 = DIRECTION ( 'NONE',  ( -1.000000000000000000, -1.387778780781445676E-16, 0.0000000000000000000 ) ) ;
#246 = LINE ( 'NONE', #310, #50 ) ;
#247 = FILL_AREA_STYLE_COLOUR ( '', #145 ) ;
#248 = EDGE_LOOP ( 'NONE', ( #205, #62 ) ) ;
#249 = AXIS2_PLACEMENT_3D ( 'NONE', #357, #21, #230 ) ;
#250 = DIRECTION ( 'NONE',  ( -1.000000000000000000, 0.0000000000000000000, -0.0000000000000000000 ) ) ;
#251 = PLANE ( 'NONE',  #16 ) ;
#252 = FACE_BOUND ( 'NONE', #248, .T. ) ;
#253 = SURFACE_SIDE_STYLE ('',( #271 ) ) ;
#254 = EDGE_CURVE ( 'NONE', #90, #352, #246, .T. ) ;
#255 = COLOUR_RGB ( '',0.7529411764705882248, 0.7529411764705882248, 0.7529411764705882248 ) ;
#256 = VECTOR ( 'NONE', #363, 1000.000000000000000 ) ;
#257 = EDGE_LOOP ( 'NONE', ( #113, #267 ) ) ;
#258 = MECHANICAL_DESIGN_GEOMETRIC_PRESENTATION_REPRESENTATION (  '', ( #189 ), #13 ) ;
#259 = CARTESIAN_POINT ( 'NONE',  ( 59.99999999999999289, 75.00000000000001421, 10.00000000000000000 ) ) ;
#260 = VECTOR ( 'NONE', #53, 1000.000000000000000 ) ;
#261 = CARTESIAN_POINT ( 'NONE',  ( -60.00000000000000000, -75.00000000000001421, 10.00000000000000000 ) ) ;
#262 = DIRECTION ( 'NONE',  ( 2.312964634635742957E-16, -1.000000000000000000, 0.0000000000000000000 ) ) ;
#263 = DIRECTION ( 'NONE',  ( -2.312964634635742957E-16, 1.000000000000000000, 0.0000000000000000000 ) ) ;
#264 = CARTESIAN_POINT ( 'NONE',  ( 59.99999999999999289, 75.00000000000001421, -10.00000000000000000 ) ) ;
#265 = ADVANCED_BREP_SHAPE_REPRESENTATION ( '7205460', ( #218, #283 ), #369 ) ;
#266 = AXIS2_PLACEMENT_3D ( 'NONE', #296, #263, #359 ) ;
#267 = ORIENTED_EDGE ( 'NONE', *, *, #107, .T. ) ;
#268 = CLOSED_SHELL ( 'NONE', ( #32, #239, #115, #299, #159, #2, #335, #126 ) ) ;
#269 = AXIS2_PLACEMENT_3D ( 'NONE', #285, #109, #325 ) ;
#270 = CARTESIAN_POINT ( 'NONE',  ( -1.540743955509788682E-30, 15.00000000000000000, 10.00000000000000000 ) ) ;
#271 = SURFACE_STYLE_FILL_AREA ( #167 ) ;
#272 = DIRECTION ( 'NONE',  ( 0.0000000000000000000, 0.0000000000000000000, 1.000000000000000000 ) ) ;
#273 = DIRECTION ( 'NONE',  ( -1.387778780781445676E-16, 1.000000000000000000, 0.0000000000000000000 ) ) ;
#274 = ORIENTED_EDGE ( 'NONE', *, *, #114, .T. ) ;
#275 =( GEOMETRIC_REPRESENTATION_CONTEXT ( 3 ) GLOBAL_UNCERTAINTY_ASSIGNED_CONTEXT ( ( #360 ) ) GLOBAL_UNIT_ASSIGNED_CONTEXT ( ( #105, #319, #139 ) ) REPRESENTATION_CONTEXT ( 'NONE', 'WORKASPACE' ) );
#276 = ORIENTED_EDGE ( 'NONE', *, *, #150, .T. ) ;
#277 =( LENGTH_UNIT ( ) NAMED_UNIT ( * ) SI_UNIT ( .MILLI., .METRE. ) );
#278 = APPLICATION_CONTEXT ( 'automotive_design' ) ;
#279 =( NAMED_UNIT ( * ) PLANE_ANGLE_UNIT ( ) SI_UNIT ( $, .RADIAN. ) );
#280 = AXIS2_PLACEMENT_3D ( 'NONE', #77, #220, #250 ) ;
#281 = SURFACE_SIDE_STYLE ('',( #66 ) ) ;
#282 = STYLED_ITEM ( 'NONE', ( #88 ), #126 ) ;
#283 = AXIS2_PLACEMENT_3D ( 'NONE', #243, #272, #244 ) ;
#284 = UNCERTAINTY_MEASURE_WITH_UNIT (LENGTH_MEASURE( 1.000000000000000082E-05 ), #392, 'distance_accuracy_value', 'NONE');
#285 = CARTESIAN_POINT ( 'NONE',  ( -1.540743955509788682E-30, 15.00000000000000000, -10.00099999999999767 ) ) ;
#286 = SURFACE_STYLE_USAGE ( .BOTH. , #281 ) ;
#287 = VECTOR ( 'NONE', #149, 1000.000000000000000 ) ;
#288 = COLOUR_RGB ( '',0.7529411764705882248, 0.7529411764705882248, 0.7529411764705882248 ) ;
#289 = CARTESIAN_POINT ( 'NONE',  ( 5.499999999999999112, 15.00000000000000000, 10.00000000000000000 ) ) ;
#290 = DIRECTION ( 'NONE',  ( 1.000000000000000000, 0.0000000000000000000, 0.0000000000000000000 ) ) ;
#291 = STYLED_ITEM ( 'NONE', ( #93 ), #218 ) ;
#292 = LINE ( 'NONE', #396, #10 ) ;
#293 = CARTESIAN_POINT ( 'NONE',  ( 60.00000000000001421, -74.99999999999998579, 10.00000000000000000 ) ) ;
#294 =( LENGTH_UNIT ( ) NAMED_UNIT ( * ) SI_UNIT ( .MILLI., .METRE. ) );
#295 = DIRECTION ( 'NONE',  ( 0.0000000000000000000, 0.0000000000000000000, 1.000000000000000000 ) ) ;
#296 = CARTESIAN_POINT ( 'NONE',  ( 60.00000000000001421, -74.99999999999998579, 10.00000000000000000 ) ) ;
#297 = DIRECTION ( 'NONE',  ( 1.000000000000000000, 2.312964634635742957E-16, 0.0000000000000000000 ) ) ;
#298 = ORIENTED_EDGE ( 'NONE', *, *, #176, .F. ) ;
#299 = ADVANCED_FACE ( 'NONE', ( #128 ), #133, .F. ) ;
#300 = STYLED_ITEM ( 'NONE', ( #14 ), #32 ) ;
#301 = DIRECTION ( 'NONE',  ( -1.000000000000000000, 0.0000000000000000000, 0.0000000000000000000 ) ) ;
#302 = CARTESIAN_POINT ( 'NONE',  ( -60.00000000000002132, 74.99999999999998579, -10.00000000000000000 ) ) ;
#303 = PRESENTATION_STYLE_ASSIGNMENT (( #99 ) ) ;
#304 = VECTOR ( 'NONE', #56, 1000.000000000000000 ) ;
#305 = EDGE_LOOP ( 'NONE', ( #322, #165, #55, #366 ) ) ;
#306 = UNCERTAINTY_MEASURE_WITH_UNIT (LENGTH_MEASURE( 1.000000000000000082E-05 ), #75, 'distance_accuracy_value', 'NONE');
#307 = STYLED_ITEM ( 'NONE', ( #365 ), #2 ) ;
#308 = LINE ( 'NONE', #31, #256 ) ;
#309 = FACE_OUTER_BOUND ( 'NONE', #311, .T. ) ;
#310 = CARTESIAN_POINT ( 'NONE',  ( 60.00000000000001421, -74.99999999999998579, -10.00000000000000000 ) ) ;
#311 = EDGE_LOOP ( 'NONE', ( #6, #395, #61, #207 ) ) ;
#312 = FILL_AREA_STYLE_COLOUR ( '', #175 ) ;
#313 =( NAMED_UNIT ( * ) SI_UNIT ( $, .STERADIAN. ) SOLID_ANGLE_UNIT ( ) );
#314 =( GEOMETRIC_REPRESENTATION_CONTEXT ( 3 ) GLOBAL_UNCERTAINTY_ASSIGNED_CONTEXT ( ( #371 ) ) GLOBAL_UNIT_ASSIGNED_CONTEXT ( ( #130, #164, #5 ) ) REPRESENTATION_CONTEXT ( 'NONE', 'WORKASPACE' ) );
#315 = APPLICATION_PROTOCOL_DEFINITION ( 'draft international standard', 'automotive_design', 1998, #278 ) ;
#316 = SURFACE_STYLE_FILL_AREA ( #390 ) ;
#317 = ORIENTED_EDGE ( 'NONE', *, *, #210, .T. ) ;
#318 = AXIS2_PLACEMENT_3D ( 'NONE', #270, #163, #96 ) ;
#319 =( NAMED_UNIT ( * ) PLANE_ANGLE_UNIT ( ) SI_UNIT ( $, .RADIAN. ) );
#320 = FACE_OUTER_BOUND ( 'NONE', #219, .T. ) ;
#321 = VECTOR ( 'NONE', #84, 1000.000000000000000 ) ;
#322 = ORIENTED_EDGE ( 'NONE', *, *, #122, .T. ) ;
#323 = UNCERTAINTY_MEASURE_WITH_UNIT (LENGTH_MEASURE( 1.000000000000000082E-05 ), #89, 'distance_accuracy_value', 'NONE');
#324 = PRESENTATION_LAYER_ASSIGNMENT (  '', '', ( #73 ) ) ;
#325 = DIRECTION ( 'NONE',  ( 1.000000000000000000, 0.0000000000000000000, 0.0000000000000000000 ) ) ;
#326 = CARTESIAN_POINT ( 'NONE',  ( -60.00000000000002132, 74.99999999999998579, 10.00000000000000000 ) ) ;
#327 =( NAMED_UNIT ( * ) PLANE_ANGLE_UNIT ( ) SI_UNIT ( $, .RADIAN. ) );
#328 = PRESENTATION_LAYER_ASSIGNMENT (  '', '', ( #189 ) ) ;
#329 = LINE ( 'NONE', #26, #97 ) ;
#330 = DIRECTION ( 'NONE',  ( -0.0000000000000000000, -0.0000000000000000000, 1.000000000000000000 ) ) ;
#331 = FACE_OUTER_BOUND ( 'NONE', #380, .T. ) ;
#332 = UNCERTAINTY_MEASURE_WITH_UNIT (LENGTH_MEASURE( 1.000000000000000082E-05 ), #195, 'distance_accuracy_value', 'NONE');
#333 = MECHANICAL_DESIGN_GEOMETRIC_PRESENTATION_REPRESENTATION (  '', ( #307 ), #275 ) ;
#334 = CARTESIAN_POINT ( 'NONE',  ( 60.00000000000001421, -74.99999999999998579, 10.00000000000000000 ) ) ;
#335 = ADVANCED_FACE ( 'NONE', ( #3, #19 ), #221, .T. ) ;
#336 = ORIENTED_EDGE ( 'NONE', *, *, #198, .F. ) ;
#337 =( NAMED_UNIT ( * ) SI_UNIT ( $, .STERADIAN. ) SOLID_ANGLE_UNIT ( ) );
#338 = STYLED_ITEM ( 'NONE', ( #162 ), #115 ) ;
#339 = FILL_AREA_STYLE ('',( #312 ) ) ;
#340 = PRODUCT_DEFINITION_FORMATION_WITH_SPECIFIED_SOURCE ( 'ANY', '', #387, .NOT_KNOWN. ) ;
#341 =( NAMED_UNIT ( * ) PLANE_ANGLE_UNIT ( ) SI_UNIT ( $, .RADIAN. ) );
#342 = VERTEX_POINT ( 'NONE', #42 ) ;
#343 = DIRECTION ( 'NONE',  ( 1.000000000000000000, 2.312964634635742957E-16, -0.0000000000000000000 ) ) ;
#344 = AXIS2_PLACEMENT_3D ( 'NONE', #259, #262, #297 ) ;
#345 =( NAMED_UNIT ( * ) SI_UNIT ( $, .STERADIAN. ) SOLID_ANGLE_UNIT ( ) );
#346 = SURFACE_STYLE_FILL_AREA ( #57 ) ;
#347 = VERTEX_POINT ( 'NONE', #374 ) ;
#348 = MECHANICAL_DESIGN_GEOMETRIC_PRESENTATION_REPRESENTATION (  '', ( #234 ), #314 ) ;
#349 = APPLICATION_PROTOCOL_DEFINITION ( 'draft international standard', 'automotive_design', 1998, #226 ) ;
#350 = DIRECTION ( 'NONE',  ( -0.0000000000000000000, -0.0000000000000000000, -1.000000000000000000 ) ) ;
#351 = SURFACE_STYLE_FILL_AREA ( #103 ) ;
#352 = VERTEX_POINT ( 'NONE', #194 ) ;
#353 = ORIENTED_EDGE ( 'NONE', *, *, #122, .F. ) ;
#354 = DIRECTION ( 'NONE',  ( -0.0000000000000000000, -0.0000000000000000000, 1.000000000000000000 ) ) ;
#355 = FACE_OUTER_BOUND ( 'NONE', #27, .T. ) ;
#356 = LINE ( 'NONE', #18, #24 ) ;
#357 = CARTESIAN_POINT ( 'NONE',  ( -1.540743955509788682E-30, 15.00000000000000000, -10.00000000000000000 ) ) ;
#358 = DIRECTION ( 'NONE',  ( 1.387778780781445676E-16, -1.000000000000000000, 0.0000000000000000000 ) ) ;
#359 = DIRECTION ( 'NONE',  ( -1.000000000000000000, -2.312964634635742957E-16, 0.0000000000000000000 ) ) ;
#360 = UNCERTAINTY_MEASURE_WITH_UNIT (LENGTH_MEASURE( 1.000000000000000082E-05 ), #105, 'distance_accuracy_value', 'NONE');
#361 = FILL_AREA_STYLE ('',( #179 ) ) ;
#362 = SURFACE_STYLE_USAGE ( .BOTH. , #154 ) ;
#363 = DIRECTION ( 'NONE',  ( -0.0000000000000000000, -0.0000000000000000000, -1.000000000000000000 ) ) ;
#364 = CIRCLE ( 'NONE', #318, 5.499999999999999112 ) ;
#365 = PRESENTATION_STYLE_ASSIGNMENT (( #286 ) ) ;
#366 = ORIENTED_EDGE ( 'NONE', *, *, #92, .T. ) ;
#367 = PRESENTATION_LAYER_ASSIGNMENT (  '', '', ( #300 ) ) ;
#368 = CYLINDRICAL_SURFACE ( 'NONE', #269, 5.499999999999999112 ) ;
#369 =( GEOMETRIC_REPRESENTATION_CONTEXT ( 3 ) GLOBAL_UNCERTAINTY_ASSIGNED_CONTEXT ( ( #332 ) ) GLOBAL_UNIT_ASSIGNED_CONTEXT ( ( #195, #279, #337 ) ) REPRESENTATION_CONTEXT ( 'NONE', 'WORKASPACE' ) );
#370 = PRESENTATION_LAYER_ASSIGNMENT (  '', '', ( #307 ) ) ;
#371 = UNCERTAINTY_MEASURE_WITH_UNIT (LENGTH_MEASURE( 1.000000000000000082E-05 ), #130, 'distance_accuracy_value', 'NONE');
#372 =( LENGTH_UNIT ( ) NAMED_UNIT ( * ) SI_UNIT ( .MILLI., .METRE. ) );
#373 = COLOUR_RGB ( '',0.7529411764705882248, 0.7529411764705882248, 0.7529411764705882248 ) ;
#374 = CARTESIAN_POINT ( 'NONE',  ( 59.99999999999999289, 75.00000000000001421, 10.00000000000000000 ) ) ;
#375 = FILL_AREA_STYLE ('',( #40 ) ) ;
#376 =( NAMED_UNIT ( * ) SI_UNIT ( $, .STERADIAN. ) SOLID_ANGLE_UNIT ( ) );
#377 = VECTOR ( 'NONE', #23, 1000.000000000000000 ) ;
#378 = FILL_AREA_STYLE ('',( #203 ) ) ;
#379 = VECTOR ( 'NONE', #140, 1000.000000000000000 ) ;
#380 = EDGE_LOOP ( 'NONE', ( #25, #71, #393, #274 ) ) ;
#381 = VERTEX_POINT ( 'NONE', #104 ) ;
#382 = ORIENTED_EDGE ( 'NONE', *, *, #192, .T. ) ;
#383 = CARTESIAN_POINT ( 'NONE',  ( -60.00000000000002132, 74.99999999999998579, -10.00000000000000000 ) ) ;
#384 = MECHANICAL_DESIGN_GEOMETRIC_PRESENTATION_REPRESENTATION (  '', ( #300 ), #8 ) ;
#385 = CARTESIAN_POINT ( 'NONE',  ( -60.00000000000000000, -75.00000000000001421, -10.00000000000000000 ) ) ;
#386 = MECHANICAL_DESIGN_GEOMETRIC_PRESENTATION_REPRESENTATION (  '', ( #291 ), #217 ) ;
#387 = PRODUCT ( '7205460', '7205460', '', ( #47 ) ) ;
#388 = LINE ( 'NONE', #326, #43 ) ;
#389 = COLOUR_RGB ( '',0.7529411764705882248, 0.7529411764705882248, 0.7529411764705882248 ) ;
#390 = FILL_AREA_STYLE ('',( #173 ) ) ;
#391 = AXIS2_PLACEMENT_3D ( 'NONE', #131, #169, #273 ) ;
#392 =( LENGTH_UNIT ( ) NAMED_UNIT ( * ) SI_UNIT ( .MILLI., .METRE. ) );
#393 = ORIENTED_EDGE ( 'NONE', *, *, #34, .T. ) ;
#394 =( NAMED_UNIT ( * ) PLANE_ANGLE_UNIT ( ) SI_UNIT ( $, .RADIAN. ) );
#395 = ORIENTED_EDGE ( 'NONE', *, *, #176, .T. ) ;
#396 = CARTESIAN_POINT ( 'NONE',  ( 59.99999999999999289, 75.00000000000001421, -10.00000000000000000 ) ) ;
ENDSEC;
END-ISO-10303-21;
